Oops, an error
Loading. Please wait.

Flourescent Adolescent Bass Tab

version 1
version 1

Whole song

Interactive

11,433 views 60 this week
no commentswrite comment
1 2 3 4 5
excellent!
x 18
add to favorites
launch autoscroll
font size
0
reset
guitar tuner
Tab Pro tools
  • play this tab
  • loop segment
  • change instrument
  • show fretboard
  • metronome
×
Best way to learn
"Flourescent Adolescent"
Autoscroll
slow
fast
+/-
esc
set tempo
stop
Contributor
-------------------------------------------------------------------------------
                             FLUORESCENT ADOLESCENT - Arctic Monkeys
-------------------------------------------------------------------------------
Tabbed by: Kevin

Tuning: Standard

Key: E major

0:00
G|-----------------------------------------|
D|-----------------------------------------|
A|-7-7-7-----4-4-4-----9-9-9---------------|
E|-------------------------------7-7-7-----|

0:08
G|------------------6----6---4------------------4-----------|
D|----2---------------------------4----4--------------9-6---|
A|-------------2-4-----4---2---------------4-2------------9-|
E|-0-----0-2-4-----------------2-----2---2---------7--------|

0:17
G|---------------------------------------------------------------------------|
D|----------------9-11-11-11-11---11---9---------------/11-9-9-9-9----9------|x2
A|-7-7-7-7-7-9-11------------------------9-9-9-9-9-9-9-------------11---11-9-|
E|------------------------------9----7---------------------------------------|
 
0:34
G|--------------------------------------|
D|--------------------------------------|
A|----------2-2----------------2-2--2-2-|
E|-2-2---------------2-2--2-2-----------|

G|-----------------------------------------------|
D|-----------------------------------------------|
A|----------------2-2-4-2--2-4-2-----------------|
E|-2-2-4-2--2-4-2----------------2~------5~------|

0:53
G|----------------------------------------------------------------------------|
D|----------------9-11-11-11-11-9-9---------------------/11-9-9-9-9----9------|
A|-7-7-7-7-7-9-11-------------------11-11-9-9-9-9-9-9-9-------------11---11-9-|
E|----------------------------------------------------------------------------|

G|----------------------------------------------------------|
D|----------------9-11-11-11-11-9-9-------------------------|
A|-7-7-7-7-7-9-11-------------------11-11-9-9-9-------------|
E|----------------------------------------------------------|

1:10
G|-----------------------------------------------------------------|
D|-----------------------------------------------------------------|
A|-----------------2-2-2-2-2-2-2-2-----------------2-2-2-2-2-2-2-2-|
E|-2-2-2-2-2-2-2-2-----------------2-2-2-2-2-2-2-2-----------------|

G|-----------------------------------------------------------------|
D|-----------------------------------------------------------------|
A|-----------------2-2-----------------------------2-2-2-2-2-2-2-2-|
E|-2-2-----------------------------2-2-2-2-2-2-2-2-----------------|

1:27
G|----------------------------------------------------------------------|
D|----------------------------------------------------------------------|
A|-----------/7-6---4--4---4--4--4-4-2-----------/7-6-------------------|
E|-4--4----4------7--------------------2--2----2------7-4--4----2--2----|

1:44
G|-----------------------------------------|
D|-----------------------------------------|x2
A|-7-7-7-----4-4-4------9-9------2-2-2-----|
E|-----------------------------4-----------|

G|---------------------------------------------------------------|
D|-------------------------------9-9-9-9-9-9-9-9-----------------|
A|-7-7-7-----4-4-4----9-9-9--------------------------------------|
E|-----------------------------------------------7-7-7-7-7-7-7-7-|

2:12
G|---------------------------------------------------------------------------|
D|----------------9-11-11-11-11---11---9---------------/11-9-9-9-9----9------|x2
A|-7-7-7-7-7-9-11------------------------9-9-9-9-9-9-9-------------11---11-9-|
E|------------------------------9----7---------------------------------------|

G|------------------6----6---4------------------4----4-1---|
D|----2---------------------------4----4-----------------4-|x2
A|-------------2-4-----4---2---------------4-2-----2-------|
E|-0-----0-2-4-----------------2-----2---2-----------------|

G|----------|
D|----------|
A|-4~~~-----|
E|----------|

| /  slide up
| \  slide down
| h  hammer-on
| p  pull-off
| ~  vibrato
| +  harmonic
| x  Mute note
===============================================================================
comments
print report bad tab
I want to post or [tab]
guest
You may want to rate the tab now too:
select rating
Please do not post tabs as comments. Select "correction" instead!