Oops, an error
Loading. Please wait.

Fluorescent Adolescent Bass Tab

version 1
version 1

Whole song

233,797 views 465 this week
19 commentsread comments
1 2 3 4 5
x 83
add to favorites
launch autoscroll
font size
0
reset
guitar tuner
Autoscroll
slow
fast
+/-
esc
set tempo
stop
Help us to improve Ultimate-Guitar.com Take our survey!
×
-------------------------------------------------------------------------------
                             Fluorescent Adolescent - Arctic Monkeys
-------------------------------------------------------------------------------

Tabbed By : Arctic Monkey

Tuning: Standard

Ok guys, I updated this version and fixed all the mistakes. It is now 100% correct. The
intro looks a little hard to understand, but it is correct, so listen to the song when
learn it. The intro you can play once or twice, the album has it once but when they play
they do it twice. Enjoy!


[Intro]

G|-----------------------------|
D|---------------444-----------|
A|-7-7-7--4-4-4-------2-2-2----|
E|-----------------------------|


[Intro Part 2]

G|--------------6-----6---4--------6-----4--4--------|
D|--2------------------------4-----------------------|
A|-----------2-4----4---2-------------2----2---------|
E|-0---0-2-4----------------2---2-2-----------3\4-2--|


[Verse]

Used to get it in your fishnets...              x2
G|---------------------------------------------------------------------------:|
D|----------------9-11-11-11-11---11---9----------------11-9-9-9-9----9------:|
A|-7-7-7-7-7-9\11-------------------------9-9-9-9-9-9-9------------11---11-9-:|
E|------------------------------9----7---------------------------------------:|


[Chorus]

The best you ever had...
G|-------------------------------------------------------------------------|
D|-------------------------------------------------------------------------|
A|------2-2------------2-2--2-2-------------------2-2h4-2-2-2h4-2----------|
E|-2-2-------2-2--2-2------------2-2h4-2-2-2h4-2-------------------2---5---|


[2nd Verse]

Flickin through a little book of sex tips...
G|---------------------------------------------------------------------------|
D|----------------9-11-11-11-11---11---9---------------11-9-9-9-9----9-------|
A|-7-7-7-7-7-9\11-------------------------9-9-9-9-9-9-9------------11---11-9-|
E|------------------------------9----7---------------------------------------|

G|-----------------------------------------------|
D|----------------9-11-11-11-11--11-11-9-9-------|
A|-7-7-7-7-7-9\11--------------------------9-9-9-|
E|-----------------------------------------------|

Chorus (Different than 1st)
                x2
G|----------------------------:|--------------------------------------------|
D|-----------------------------:|-------------------------------------------|
A|---------------2-2h4-2-2h4---:|-----2-2-----------------------------------|
E|-2-2h4-2-2h4-----------------:|-2-2----2-2-2-2-2-2-2-2--7-7-7-7-7-7-7-7---|

G|--------------------------------------------------------------|
D|--------------------------------------------------------------|
A|---------6\7-6-2--------------------------6\7-6-2-------------|
E|-4-4---4-----------9-9---9-9-9-7---2-2--2----------4-4-4--2-2-|

          X3            3rd Time Ends With This
G|-------------------------:|------------------------------------|
D|-------------------------:|------------------------------------|
A|-7-7-7-------9-9--9------:|------------------------------------|
E|-------9-9-9-------7-7-7-:|-7-7-7-7-7-11-11-11-11-11h12-11/9---|

Ending
                    x2
G|------------------------------------------------------------------:|
D|------------------------------------------------------------------:|
A|---------------2-4-4-4-4-2-2--------------------4-2-2-2-2---2-----:|
E|-0-0-0-0-0-2-4---------------4-2--2-2-2-2-2-2-2-----------4---4-2-:|


                   x2
G|--------------6-----6---4--------6-----4--4--------:|
D|--2------------------------4-----------------------:|
A|-----------2-4----4---2-------------2----2---------:|
E|-0---0-2-4----------------2---2-2-----------3\4-2--:| End the second time with an open E

*********************************

| /  slide up
| \  slide down
| h  hammer-on
| p  pull-off
| ~  vibrato
| +  harmonic
| x  Mute note

*********************************
Suggest correction
comments
print report bad tab
19 comments total. Showing first comments.
+2 reply
dogsmack 273 Apr 21, 2007 07:01 AM

nice work man, but i don't think, that the INTRO PART 2 is played 2 times ;)

+1 reply
Arctic Monkey 101 Apr 21, 2007 04:14 PM

Yeah your right, I tabbed it from a live show where they did play it twice but on the album it is only played one.

+1 reply
San Miguel 106 Apr 30, 2007 09:15 AM

great tab. just one thing, on the album version, instead for the ending being played 4 times, its played twice, and then it goes back to Intro part 2 , which is played twice.

guest
You may want to rate the tab now too:
select rating
Wanna post a correction for this tab? Suggest correction