Oops, an error
Loading. Please wait.

Fluorescent Adolescent Tab

version 4
version 4

Intro

Whole song

52 views 9 this week
1 commentread comment
1 2 3 4 5
1 last vote to show rating
add to favorites
launch autoscroll
font size
0
reset
how to read this tab
guitar tuner
Autoscroll
slow
fast
+/-
esc
set tempo
stop
Help us to improve Ultimate-Guitar.com Take our survey!
×
Author
Difficulty
novice
About this tab version
This is an easier version to play. Was this info helpful? Yes No
e|-------------------------------------|
B|-------------------------------------|
G|-------------------------------------|
D|-------------------------------------|
A|------------------2-4----4-2---------|
E|-0-0-0-----0-2-4--------------2------|


e|-------------------------------------|
B|-------------------------------------|
G|-------------------------------------|
D|-------------------------------------|
A|-----4-2---2-2-----------------------|
E|-2-2-----------4-2-0-----------------|
Suggest correction
Give kudos to tab author, rate the tab!
1 2 3 4 5
comments
print report bad tab
1 comment total.
0 reply
agustinmoribueno 10 Sep 20, 2016 12:36 AM

perfect boi

guest
You may want to rate the tab now too:
select rating
Wanna post a correction for this tab? Suggest correction