Oops, an error
Loading. Please wait.

Fluorescent Adolescent Tab

version 1
version 1

Whole song

300,770 views 39 this week
10 commentsread comments
1 2 3 4 5
x 14
add to favorites
launch autoscroll
font size
0
reset
how to read this tab
guitar tuner
backing track
0:00
0:00
×
Best way to learn
"Fluorescent Adolescent"
Autoscroll
slow
fast
+/-
esc
set tempo
stop
Author
[Intro/Break Bass]
G|-------------------------------------------------|
D|--------------------------------4----------------|
A|----------2----4--2------4-2-4-------------------|
E|---0-2-4------------2------------------2-2-4-4-7-|

[Verse chords]
  E  C#m  F#m  B
e|7---4---2---7-|
B|9---5---2---7-|
G|9---6---2---8-|  Just repeat this pattern as necessary until chorus.
D|9---6---4---9-|  The strumming pattern is easy to figure out.
A|7---4---4---9-|
E|x---x---2---7-|

[Chorus Chords]
  F#m  B   A
e|2----7---5-|
B|2----7---5-|
G|2----8---6-|
D|4----9---7-|
A|4----9---7-|
E|2----7---5-|


[Chorus]
(I have listed the lyrics below just in case there is any confusion on how the chorus is played)

                  F#m F#m (down strokes)
oh the boys a slag
                  B   B   (down strokes)
the best you ever had
                  F#m F#m (down strokes)
the best you ever had
     F#m F#m   B B   B B        <-(up to here is all down strokes
is just a memory of those dreams  but start strumming after this)
     F#m       B
as daft as they may seem
     F#m      (pause)
as daft as they may seem my love
     A     (slowly strum down)
when you dream them up

(Then back to the verse the lead also comes in at this point with a little melodic riff 
I have had a stab at this but i'm not sure if its 100% correct but here it is anyway)

e|----7-9-----------------------2-4-|
B|---9---------7---4--2--------4----|
G|-9---------8---6-----------4------|
D|----------------------------------|
A|----------------------------------|
E|----------------------------------|

 This riff also comes in a bit later on in the song:
e|----7-9----7-----4~~~-------------|
B|---9------------------------------|
G|-9--------------------------------| repeat as necessary
D|----------------------------------|
A|----------------------------------|
E|----------------------------------|



************************************

| x  Dead note
| ~  Vibrato

************************************
Suggest correction
comments
print report bad tab
10 comments total. Showing first comments.
0 reply
D.SHIZZLE 10 Mar 11, 2007 07:29 AM

woww!!...you work quick...well done for the lack of audio to work from!!...or do you have inside sources????lol

0 reply
GLandolina 55 Apr 13, 2007 03:50 AM

Good job, although there are a few mistakes, after seeing live footage there are some corrections to be made, I might upload a tab but really you've done most of the work, for example the f#m is the one on the second fret instead of what you have.

0 reply
James_CFC 114 Apr 16, 2007 08:46 AM

Great tab, 5 stars

guest
You may want to rate the tab now too:
select rating
Wanna post a correction for this tab? Suggest correction