Oops, an error
Loading. Please wait.
We have an official Fluorescent Adolescent tab made by UG professional guitarists. Check out the tab »
×

Fluorescent Adolescent tab

15,235 views 15 this week
no commentswrite comment
1 2 3 4 5
x 11
add to favorites
×
Save as Personal and add changes to this tab that will be seen only by you. Learn more ›
×
You can save this tab as Personal to edit and correct it or add notes. All changes will be seen only by you. Learn more »
launch autoscroll
font size
0
reset
how to read this tab
guitar tuner
backing track
0:00
0:00
edit
Autoscroll
slow
fast
+/-
esc
set tempo
stop
Author
Difficulty
intermediate
Standard Tuning.

all the other ones aren't very good so here you go

[Intro]
e |---------------------------------------------------------------------------------|
B |---------------------------------------------------------------------------------|
G |---------------------------------------------------------------------------------|
D |---------------------------------------------------------------------------------|
A |------------------2---4-4-4-----4---2-------------------4---2-2-2-----2-2--------|
E |-0-0-0-----0-2-4-----------------------2-2-2-----2---2-------------------4-2-----|

    accompanied by

e |-----9--------------------9-------9---7----2--------------------4----------------|
B |-----9--------------------9-------9---7----2--------------------4----------------|
G |-----9--------------------9-------9---8----2--------------------4----------------|
D |-----9-------------------11------11---9----4--------------------4----------------|
A |-----7-------------------11------11---9----4--------------------2----------------|
E |-----0--------------------9-------9---7----2--------------------x----------------|
                                     ^   ^
          *these two are on the off beats

   strum changes but same chords

   More or less the chorus

e |-9-9-9-9-9---9-9------9-9-9-9---9-7------2-2-2-2---2-2------4-4-4-4---4-4-------|
B |-9-9-9-9-9---9-9------9-9-9-9---9-7------2-2-2-2---2-2------4-4-4-4---4-4-------|
G |-9-9-9-9-9---9-9------9-9-9-9---9-8------2-2-2-2---2-2------4-4-4-4---4-4-------|
D |-9-9-9-9-9---9-9-----11111111--11-9------4-4-4-4---4-4------4-4-4-4---4-4-------|
A |-7-7-7-7-7---7-7-----11111111--11-9------4-4-4-4---4-4------2-2-2-2---2-2-------|
E |-0-0-0-0-0---0-0------9-9-9-9---9-7------2-2-2-2---2-2------x-x-x-x---x-x-------|

Plays once then doesn't for a single verse then comes back to it

    then. . .

e |-----2-2------7-7------2-2---2-2---7-7---7-7-----------|
B |-----2-2------7-7------2-2---2-2---7-7---7-7-----------|
G |-----2-2------8-8------2-2---2-2---8-8---8-8-----------|
D |-----4-4------9-9------4-4---4-4---9-9---9-9-----------|
A |-----4-4------9-9------4-4---4-4---9-9---9-9-----------|
E |-----2-2------7-7------2-2---2-2---7-7---7-7-----------|

  you just use a different strum with the two chords here
  then end with

e |-----2-------5-------|
B |-----2-------5-------|
G |-----2-------6-------|
D |-----4-------7-------|
A |-----4-------7-------|
E |-----2-------5-------|
  
  let both chords ring then go back to chorus and its a bit different its 
  closely related to the intro strum

    

    The "oh flo, where did you go?" part.

e |--4-x-4--x--4-x-4--x--9-x-9--x--9-x-9--x--2-x-2--x--2-x-2--x--4-x-4--x--2-x-2-x---|
B |--4-x-4--x--4-x-4--x--9-x-9--x--9-x-9--x--2-x-2--x--2-x-2--x--4-x-4--x--2-x-2-x---|
G |--4-x-4--x--4-x-4--x--9-x-9--x--9-x-9--x--2-x-2--x--2-x-2--x--4-x-4--x--2-x-2-x---|
D |--6-x-6--x--6-x-6--x-11-x11--x-11-x11--x--4-x-4--x--4-x-4--x--6-x-6--x--4-x-4-x---|
A |--6-x-6--x--6-x-6--x-11-x11--x-11-x11--x--4-x-4--x--4-x-4--x--6-x-6--x--4-x-4-x---|
E |--4-x-4--x--4-x-4--x--9-x-9--x--9-x-9--x--2-x-2--x--2-x-2--x--4-x-4--x--2-x-2-x---|
       ^
    Hand Slap on x

  Return to intro.


there is a small transition after he sings "YOU'RE NOT COMING BACK AGAIN" the first time.

e |-----------------------------------------|
B |-----4-4-4-4-4-4-4-4-8-8-8-8-8-9-8-6-----|
G |-----4-4-4-4-4-4-4-4-8-8-8-8-8-9-8-6-----|
D |-----4-4-4-4-4-4-4-4-8-8-8-8-8-9-8-6-----|
A |-----2-2-2-2-2-2-2-2-6-6-6-6-6-7-6-4-----|
E |-----------------------------------------|

then back to the chorus/intro combo.



************************************

| x  Dead note 

************************************

            
            
Suggest correction
Creating personal tab
Creating personal tab
You can edit any tab online and save it as your Personal.

You can edit, replace or remove any tab part or add personal notes – all changes will be seen only by you.

Personal tabs can be accessed anytime from any device, even offline.
Learn more »
comments
print report bad tab
guest
You may want to rate the tab now too:
select rating
Wanna post a correction for this tab? Suggest correction