Oops, an error
Loading. Please wait.

Fright Lined Dining Room Bass Tab

version 2
version 2

Whole song

Interactive

1,077 views 1 this week
no commentswrite comment
1 2 3 4 5
please rate
add to favorites
launch autoscroll
font size
0
reset
guitar tuner
Autoscroll
slow
fast
+/-
esc
set tempo
stop
Help us to improve Ultimate-Guitar.com Take our survey!
×
Author
Difficulty
intermediate
The other tab wasnt so great so hopefully this is good :)

Verse/Intro
G|------4--------45----45-|------4--------45-----x4-|
D|---45---45--2-2---2-2---|---45---45--2-2---2-2----|
A|2-2----2----------------|2-2----2-----------------|
E|------------------------|-------------------------|

x= mute string

Chorus
G|----------------|
D|----------------|
A|-32--32--32--32-|
E|0---0---0---0---|However many times as needed :)

Break - these are 10s :)
G|--7----------7---------|
D|99-9-99109-99-9-109109-|
A|-----------------------|
E|-----------------------|for a while

then
G|----7------------------------|
D|9999-9-9999109-99109-9999109-|
A|-----------------------------|
E|-----------------------------|

thats all ya need :D
Suggest correction
Give kudos to tab author, rate the tab!
1 2 3 4 5
comments
print report bad tab
guest
You may want to rate the tab now too:
select rating
Please do not post tabs as comments. Select "correction" instead!