Oops, an error
Loading. Please wait.

From The Ritz To The Rubble Bass Tab

version 1
version 1

Whole song

Interactive

81,871 views 54 this week
12 commentsread comments
1 2 3 4 5
x 64
add to favorites
launch autoscroll
font size
0
reset
guitar tuner
Autoscroll
slow
fast
+/-
esc
set tempo
stop
Help us to improve Ultimate-Guitar.com Take our survey!
×
[Verse]
G|-------------------------7------------|
D|------7-9----7-9-----7/9------9----7--|
A|------------------5--------77---55----|x6
E|---7-------7--------------------------|

[Chorus]
G|------------------------------------------------|
D|--------------------7-9-7-9---------------------|
A|--5-7-5-7--7-9-7-9------------------------------|x4
E|-----------------------------7777777777777777---|

[Verse] x6
G|-------------------------7------------|
D|------7-9----7-9-----7/9------9----7--|
A|------------------5--------77---55----|x6
E|---7-------7--------------------------|

[Chorus] x6
G|------------------------------------------------|
D|--------------------7-9-7-9---------------------|
A|--5-7-5-7--7-9-7-9------------------------------|
E|-----------------------------7777777777777777---|

[Bridge 1]
G|---------------------------------------|
D|---------------------------------------|
A|-------------------55555555-77777775---|
E|--77777777777777-----------------------|

[Bridge 2]
G|---------------------------------------|
D|---------------------------------------|
A|-------------------555-555--777-7774---|
E|--777-777-777-777----------------------|

[Bridge 1] x4
G|---------------------------------------|
D|---------------------------------------|
A|-------------------55555555-77777775---|
E|--77777777777777-----------------------|

[Verse]
G|-------------------------7------------|
D|------7-9----7-9-----7/9------9----7--|
A|------------------5--------77---55----|
E|---7-------7--------------------------|
Suggest correction
comments
print report bad tab
12 comments total. Showing first comments.
0 reply
El Jimbo 117 Jan 08, 2006 10:37 AM

pretty much perfect except i think the verse is

G------------------------------------|
D------7-9----7-9-----7/9------9---7-|
A------------------5--------7---5----|
E---7-------7------------------------|

+2 reply
El Jimbo 117 Jan 17, 2006 04:13 PM

my bad ur intro is right

+5 reply
mikethecoug 259 Feb 08, 2006 02:33 PM

G------------------------------------|
D------7-9----7-9-----7/9------9---7-|
A------------------5--------7---55---|
E---7-------7------------------------|

is right

guest
You may want to rate the tab now too:
select rating
Wanna post a correction for this tab? Suggest correction