Oops, an error
Loading. Please wait.

From The Ritz To The Rubble Bass Tab

version 1
version 1

Whole song

Interactive

78,808 views 66 this week
12 commentsread comments
1 2 3 4 5
excellent!
x 56
add to favorites
launch autoscroll
font size
0
reset
guitar tuner
Tab Pro tools
  • play this tab
  • loop segment
  • change instrument
  • show fretboard
  • metronome
×
Best way to learn
"From The Ritz To The Rubble"
Autoscroll
slow
fast
+/-
esc
set tempo
stop
Contributor
Verse
G-------------------------7------------|
D------7-9----7-9-----7/9------9----7--|
A------------------5--------77---55----|x6
E---7-------7--------------------------|

Chorus
G------------------------------------------------|
D--------------------7-9-7-9---------------------|
A--5-7-5-7--7-9-7-9------------------------------|x4
E-----------------------------7777777777777777---|

Verse x6

Chorus x6

Bridge1
G---------------------------------------|
D---------------------------------------|
A-------------------55555555-77777775---|x6
E--77777777777777-----------------------|

Brige2
G---------------------------------------|
D---------------------------------------|
A-------------------555-555--777-7774---|x2
E--777-777-777-777----------------------|

Bridge 1 x4

Verse x1

This is pretty correct im not to sure on the chorus though
comments
print report bad tab
12 comments total. Showing first comments.
0 reply
El Jimbo wrote on January 8 2006, 10:37 am

pretty much perfect except i think the verse is

G------------------------------------|
D------7-9----7-9-----7/9------9---7-|
A------------------5--------7---5----|
E---7-------7------------------------|

+2 reply
El Jimbo wrote on January 17 2006, 04:13 pm

my bad ur intro is right

+4 reply
mikethecoug wrote on February 8 2006, 02:33 pm

G------------------------------------|
D------7-9----7-9-----7/9------9---7-|
A------------------5--------7---55---|
E---7-------7------------------------|

is right

I want to post or [tab]
guest
You may want to rate the tab now too:
select rating
Please do not post tabs as comments. Select "correction" instead!