Oops, an error
Loading. Please wait.

From The Ritz To The Rubble Tab

version 1
version 1

Whole song

Interactive

12,894 views 27 this week
2 commentsread comments
1 2 3 4 5
accurate
x 6
add to favorites
launch autoscroll
font size
0
reset
how to read this tab
guitar tuner
Tab Pro tools
  • play this tab
  • loop segment
  • change instrument
  • show fretboard
  • metronome
×
Best way to learn
"From The Ritz To The Rubble"
Autoscroll
slow
fast
+/-
esc
set tempo
stop
Contributor
Difficulty
intermediate
----------------------------------------------------------------------------
               From The Ritz To The Rubble- Arctic Monkeys
----------------------------------------------------------------------------

This is my first tab so comment please!


Main Riff:

e|------------------------------------------------|
B|--16---14-11---9-11---------7-------9-----------|
G|--------------------9---7-9-----7-9-------------|
D|------------------------------------------------|
A|------------------------------------------------|
E|------------------------------------------------|

Verse 1:

Guitar 1 comes in at "one of 'ems alright..."
e|--7------7-x-10------10-x-7------7-x-----|
B|--7------7-x-10------10-x-8------8-x-----|
G|--8------8-x-11------11-x-9------9-x-----|   (x8)
D|--9------9-x-12------12-x-9------9-x-----|
A|--9------9-x-12------12-x-7------7-x-----|
E|--7------7-x-10------10-x----------------|

Heres the bass which comes in at "He makes examples of you..."
G-------------------------7----------------|
D------7-9----7-9-----7/9------9----7------|
A------------------5--------77---55--------|   (x6)
E---7-------7------------------------------|

Guitar 2 plays main riff and comes in at "...swap jumpers and make another move..." play 
twice.

Chorus:

Guitar 1
e|--------------------------------------|
B|--------------------------------------|
G|---------------------------2-4-2-4----|
D|---0-2-0-2---2-4-2-4------------------|
A|--------------------------------------|
E|--------------------------------------|


Guitar 2
e|--------------------------------------|
B|--------------------------------------|
G|--4-2---------------------------------|
D|-------4-2--2-0-----------------------|
A|--------------------------------------|
E|--------------------------------------|

Guitar 1 plays first and then guitar 2 plays  then guitar 1 plays same riff again on 
2’s second to last note then guitar 2 plays their riff again. Guitar 1 plays again then 
2 and finish on guitar 1.

Verse 2:

Starts with bass straight after chorus.
G-------------------------7----------------|
D------7-9----7-9-----7/9------9----7------|
A------------------5--------77---55--------|   (x5)
E---7-------7------------------------------|

Guitar 1 comes in at “Well this town’s…” playing verse only 4 times


Guitar 2 plays main riff and comes in at “That girls a different girl today…” play it once.

Play the chorus again once.

Bridge:
e|------------------------------------------------------|
B|------------------------------------------------------|
G|------------------------------------------------------|   (x6)
D|------------------------------------------------------|
A|------------------5555555577777777--------------------|
E|--7777777777777777------------------------------------|

Solo:

e|------------------------------------------------------------|
B|------------------------------------------------------------|
G|------------------------------------------------------------|
D|------------------------------------------------------------|
A|-22222222--999-77777-55555555-121212-141414-1212-99999999---|
E|------------------------------------------------------------|

e|----------------------------------------------------------------|
B|----------------------------------------------------------------|
G|----------------------------------------------------------------|
D|----------------------------------------------------------------|
A|-121212-999-77-55555555-77777777-22222222--999-77777-55555555---|
E|----------------------------------------------------------------|

e|--------------------------------------------|
B|--------------------------------------------|
G|--------------------------------------------|
D|--------------------------------------------|
A|-121212-141414-1212-99999999-121212-14141414|
E|--------------------------------------------|

e|--------------------------------------------|
B|--------------------------------------------|
G|--------------------------------------------|
D|--------------------------------------------|
A|-1717171717171717-1919191919191919----------|
E|--------------------------------------------|

Outro:
(i'm not sure if the number of notes is right)
e|----------------------------------------------------|
B|----------------------------------------------------|
G|-161616161616-1414-111111111111-99-1111-------------|
D|----------------------------------------999999999999|
A|----------------------------------------------------|
E|----------------------------------------------------|

e|--------------------------------------|
B|-------777777777777-------999999999999|
G|-77-99--------------77-99-------------|
D|--------------------------------------|
A|--------------------------------------|
E|--------------------------------------|

e|----------------------------------------------------|
B|----------------------------------------------------|
G|-161616161616-1414-111111111111-99-1111-------------|
D|----------------------------------------999999999999|
A|----------------------------------------------------|
E|----------------------------------------------------|

e|--------------------------------------|
B|-------777777777777-------999999999999|
G|-77-99--------------77-99-------------|
D|--------------------------------------|
A|--------------------------------------|
E|--------------------------------------|

Finish with bass riff:
G-------------------------7------------|
D------7-9----7-9-----7/9------9----7--|
A------------------5--------77---55----|
E---7-------7--------------------------|

| /  slide up
| \  slide down
| h  hammer-on
| p  pull-off
| ~  vibrato
| +  harmonic
| x  Mute note
============================================================================
comments
print report bad tab
2 comments total.
0 reply
purple_floyd wrote on October 8 2007, 01:50 pm

Great tab sounds pretty ner perfect!! 5 star!

0 reply
soupdragon wrote on October 17 2007, 03:52 pm

Nice tab,perfect.

I want to post or [tab]
guest
You may want to rate the tab now too:
select rating
Please do not post tabs as comments. Select "correction" instead!