Oops, an error
Loading. Please wait.

Hold On Were Going Home tab

version 2
version 2

Whole song

2,056 views 9 this week
1 commentread comment
1 2 3 4 5
x 7
add to favorites
×
Save as Personal and add changes to this tab that will be seen only by you. Learn more ›
×
You can save this tab as Personal to edit and correct it or add notes. All changes will be seen only by you. Learn more »
launch autoscroll
font size
0
reset
how to read this tab
guitar tuner
edit
Autoscroll
slow
fast
+/-
esc
set tempo
stop
*-------------------------------------PLEASE NOTE-------------------------------------*
*-This file is the author's own work and represents their interpretation of the song.-*
*-------You may only use this file for private study, scholarship, or research.-------*
*-------------------------------------------------------------------------------------*

Rendition by the Arctic Monkeys on their BBC Radio 1's Live Lounge performance at 
September 17th, 2013 of Drake's single "Hold On We're Going Home". Performance available 
at the following link: https://youtu.be/RvA3q0ZU-NQ

The song has a strong R&B vibe, close to the style that can be found in Arctic Monkeys'
fifth album, "AM".

Tabbed by Pelusteriano
Contact at my UG profile
Music by Nineteen85 & Majid Jordan, arr. by Arctic Monkeys
Key of A major

=========================================================================================
Note:  Chords are based on the bass progression by JuffBass: http://goo.gl/Hz6EJp
       And the piano chords heard on their live performance: https://youtu.be/RvA3q0ZU-NQ
=========================================================================================
Chords (low to high, in order of appearance)
Bm X24432  A X02220  E 022100  F#m 244222
or 7XX77X    X0765X    X76454      XX7675


INTRO

      Bm                    A          E
|----------|--------------|----------|----------------|
|----------|--------------|----------|----------------|
|----------|--------------|----------|----------------|  Playing tip: Synth plays the same melody
|-2--------|--------------|-2--------|----------------|               one octave higher.
|---4-2----|-0------0-2-4-|---4-2----|-0------0-2-4-2-|               Jamie Cook's using two effects,
|----------|----2-0-------|----------|----2-0---------|               i) delay, ii) reverb


VERSE I
                        
  Piano arr. for guitar 
                    ____            ____
                   |1.             |2.
    Bm              A      E        F#m    E
|| ------|--------|------|------ ||-5----|------|
|| -7----|-(7)----|-5----|-6---- ||-7----|-6----|
||O-7----|-(7)----|-6----|-5----O||-6----|-5----|
||O-9----|-(9)----|-7----|-6----O||-7----|-6----|
|| ------|--------|-0----|-7---- ||------|-7----|
|| -7----|-(7)----|------|------ ||------|------|
           (X): hold note

            Bm
I've got my eyes on you

You're everything that I see
            A
I want your hot love and emotion
E
Endlessly

            Bm
I can't get over you

You put your mark on me
            F#m
I want your hot love and emotion
E
Endlessly


PRE-CHORUS
                          _____                     _____
                         |1.                       |2.
    Bm                    A      E                  F#m    E
|| ------|--------------|------|---------------- ||-5----|----------------|
|| -7----|-(7)----------|-5----|-6-------------- ||-7----|-6--------------|
||O-7----|-(7)----------|-6----|-5--------------O||-6----|-5--------------|
||O-9----|-(9)----------|-7----|-6--------------O||-7----|-6--------------|
|| ------|--------------|-0----|-7-------------- ||------|-7--------------|
|| -7----|-(7)----------|------|---------------- ||------|----------------|
|
|
|| ------|--------------|------|---------------- ||------|----------------|
|| ------|--------------|------|---------------- ||------|----------------|
||O------|--------------|------|----------------O||------|----------------|
||O------|--------------|------|----------------O||------|----------------|
|| ------|-0------0-2-4-|------|-0------0-2-4-2- ||------|-0------0-2-4-2-|
|| ------|----2-0-------|------|----2-0--------- ||------|----2-0---------|

                Bm
'Cause you're a good girl and you know it
           A                   E
You act so different around me
                Bm
'Cause you're a good girl and you know it
        F#m                     E
I know exactly who you could be, oh!


CHORUS
      
      P.M.----------|
|| ------------------- ||
|| ---14--14-14------- ||
||O-------------14----O||
||O----------------14-O||
|| ------------------- ||
|| ------------------- ||X8
      P.M.: Palm mute

                   Bm
Just hold on we're going home
                   A          E
Just hold on we're going home
                      Bm
It's hard to do these things alone
                   F#m        [E]     [X]: Chord not played originally,
Just hold on we're going home, yeah!       optional to play


VERSE II
                    ____            ____
                   |1.             |2.
    Bm              A      E        F#m    E
|| ------|--------|------|------ ||-5----|------|
|| -7----|-(7)----|-5----|-6---- ||-7----|-6----|
||O-7----|-(7)----|-6----|-5----O||-6----|-5----|
||O-9----|-(9)----|-7----|-6----O||-7----|-6----|
|| ------|--------|-0----|-7---- ||------|-7----|
|| -7----|-(7)----|------|------ ||------|------|

            Bm
I've got my eyes on you

You're everything that I see
            A
I want your hot love and emotion 
E
Endlessly

             Bm
I can't get over you

You left your mark on me
            F#m
I want your hot love and emotion 
E
Endlessly


PRE-CHORUS    
                          _____                     _____                      
                         |1.                       |2.
    Bm                    A      E                  F#m    E
|| ------|--------------|------|---------------- ||-5----|----------------|
|| -7----|-(7)----------|-5----|-6-------------- ||-7----|-6--------------|
||O-7----|-(7)----------|-6----|-5--------------O||-6----|-5--------------|
||O-9----|-(9)----------|-7----|-6--------------O||-7----|-6--------------|
|| ------|--------------|-0----|-7-------------- ||------|-7--------------|
|| -7----|-(7)----------|------|---------------- ||------|----------------|
|
|
|| ------|--------------|------|---------------- ||------|----------------|
|| ------|--------------|------|---------------- ||------|----------------|
||O------|--------------|------|----------------O||------|----------------|
||O------|--------------|------|----------------O||------|----------------|
|| ------|-0------0-2-4-|------|-0------0-2-4-2- ||------|-0------0-2-4-2-|
|| ------|----2-0-------|------|----2-0--------- ||------|----2-0---------|

                Bm
'Cause you're a good girl and you know it (Oh, yeah)
           A                    E
You act so different around me (Ah-ah, ah-ah)
                Bm
'Cause you're a good girl and you know it (Ah-ah, ah-ah)
       F#m                      E
I know exactly who you could be


CHORUS
      
      P.M.----------|
|| ------------------- ||
|| ---14--14-14------- ||
||O-------------14----O||
||O----------------14-O||
|| ------------------- ||
|| ------------------- ||X8

                       Bm
So, just hold on we're going home (Going home)
                   A          E
Just hold on we're going home (Going home)
                      Bm
It's hard to do these things alone (Things alone)
                   F#m        E
Just hold on we're going home, yeah!


BRIDGE
                    ____            ____
                   |1.             |2.
    Bm              A      E        F#m    E
|| ------|--------|------|------ ||-5----|------|
|| -7----|-(7)----|-5----|-6---- ||-7----|-6----|
||O-7----|-(7)----|-6----|-5----O||-6----|-5----|
||O-9----|-(9)----|-7----|-6----O||-7----|-6----|
|| ------|--------|-0----|-7---- ||------|-7----|
|| -7----|-(7)----|------|------ ||------|------|

Bm
You're the girl, you're the one
A               E
I give you everything I love
Bm
You think there's something, baby!
F#m                         E
You think there's something, baby!
                    ____             ____
                   |1.              |2.
    Bm              A      E         F#m    E
|| ------|--------|------|------- ||-5----|------|
|| -7----|-(7)----|-5----|-6----- ||-7----|-6----|
||O-7----|-(7)----|-6----|-5-----O||-6----|-5----|
||O-9----|-(9)----|-7----|-6-----O||-7----|-6----|
|| ------|--------|-0----|-7----- ||------|-7----|
|| -7----|-(7)----|------|------- ||------|------|
|
|
|| ------|--------|-12---|------- ||-17---|------|
|| ------|-12-14--|------|-14-12- ||------|------|
||O-14---|--------|------|-------O||------|------|
||O------|--------|------|-------O||------|------|
|| ------|--------|------|------- ||------|------|
|| ------|--------|------|------- ||------|------|

Bm
You're the girl, you're the one
A               E
I give you everything I love
Bm
You think there's something, baby!
F#m                         (E)         
You think there's something


CHORUS
                    ____             ____
                   |1.              |2.
    Bm              A      E         F#m    E
|| ------|--------|------|------- ||-5----|-------|
|| -7----|-(7)----|-5----|-6----- ||-7----|-6-----|
||O-7----|-(7)----|-6----|-5-----O||-6----|-5-----|
||O-9----|-(9)----|-7----|-6-----O||-7----|-6-----|
|| ------|--------|-0----|-7----- ||------|-7-----|
|| -7----|-(7)----|------|------- ||------|-------|
|
|
|| ------|--------|-12---|------- ||-17---|-14-12-|
|| ------|-12-14--|------|-14-12- ||------|-------|
||O-14---|--------|------|-------O||------|-------|
||O------|--------|------|-------O||------|-------|
|| ------|--------|------|------- ||------|-------|
|| ------|--------|------|------- ||------|-------|

                       Bm
So, just hold on we're going home (Going home)
                   A          E
Just hold on we're going home (Going home)
                      Bm
It's hard to do these things alone (Things alone)
                   F#m        E
Just hold on we're going home, yeah!
                    ____             ____
                   |1.              |2.
    Bm              A      E         F#m    E
|| ------|--------|------|------- ||-5----|-------|
|| -7----|-(7)----|-5----|-6----- ||-7----|-6-----|
||O-7----|-(7)----|-6----|-5-----O||-6----|-5-----|
||O-9----|-(9)----|-7----|-6-----O||-7----|-6-----|
|| ------|--------|-0----|-7----- ||------|-7-----|
|| -7----|-(7)----|------|------- ||------|-------|
|
|
|| ------|--------|-12---|------- ||-17---|-------|
|| ------|-12-14--|------|-14-12- ||------|-------|
||O-14---|--------|------|-------O||------|-------|
||O------|--------|------|-------O||------|-------|
|| ------|--------|------|------- ||------|-------|
|| ------|--------|------|------- ||------|-------|

                       Bm
So, just hold on we're going home (Going home)
                   A          E
Just hold on we're going home (Going home)
                   Bm
Just hold on we're going home (Going home)
                   F#m       
Just hold on we're going home
E
That knows (not sure about this lyrics line)



***************************************************************************************
                    Did you like this tab? Leave a comment or rate!
            Noticed anything wrong? Let me know to fix it. Keep on rocking!
***************************************************************************************

            
            
Suggest correction
Creating personal tab
Creating personal tab
You can edit any tab online and save it as your Personal.

You can edit, replace or remove any tab part or add personal notes – all changes will be seen only by you.

Personal tabs can be accessed anytime from any device, even offline.
Learn more »
comments
print report bad tab
1 comment total.
+2 reply
30021197 10 Sep 23, 2016 11:11 AM

That nose

guest
You may want to rate the tab now too:
select rating
Wanna post a correction for this tab? Suggest correction