Oops, an error
Loading. Please wait.

I Bet You Look Good On The Dancefloor Bass Tab

version 1
version 1
17,658 views 3 this week
5 commentsread comments
1 2 3 4 5
x 10
add to favorites
launch autoscroll
font size
0
reset
guitar tuner
Autoscroll
slow
fast
+/-
esc
set tempo
stop
Help us to improve Ultimate-Guitar.com Take our survey!
×
Author
Artist: Arctic Monkeys
Song: I Bet You Look Good On The Dancefloor
Tabbed by: mikethecoug

Intro
------
G|-------------------------------------|
D|-------------------------------------|
A|-------------------------------------|
E|-22-0-22---22-0-22...--2222222222222-|

Verse
-----
G|-----------------|
D|-----------------|
A|-4-x-2-2-0---0---|
E|-----------5---2-|

Chorus
------
G|--------------------------------------------------------------|
D|------2---------2---------2---------2---------2---------2-----|
A|----4---4-----4---4--00-4---4--00-4---4-----4---4-----4---4---|
E|-22--------22----------------------------00--------00---------|

G|-------------------|
D|------2-44-2-4-2---|
A|----4------------4-|
E|-22----------------|

G|--------------------------------------------------------------|
D|------2---------2---------2---------2---------2---------2-----|
A|----4---4-----4---4--00-4---4--00-4---4-----4---4-----4---4---|
E|-22--------22----------------------------00--------00---------|

G|------------------|
D|------------------|
A|-4444444444444444-|
E|------------------|

Verse
Chorus

Interlude
---------
G|----------------------------------------------------|
D|----------------------------------------------------|
A|----------77777777-99999999999999----------77777777-|
E|-55555555-------------------------55555555----------|

G|-------------------------------------|
D|-------------------------------------|
A|-------------------------------------|
E|-22-0-22---22-0-22>>>--2222222222222-|

Chorus
------
G|-----------------------------------------|
D|-----2---------2---------2---------2-----|
A|00-4---4--00-4---4-----4---4-----4---4---|
E|--------------------00--------00---------|

G|-------------------|
D|------2-44-2-4-2---|
A|----4------------4-|
E|-22----------------|

G|--------------------------------------------------------------|
D|------2---------2---------2---------2---------2---------2-----|
A|----4---4-----4---4--00-4---4--00-4---4-----4---4-----4---4---|
E|-22--------22----------------------------00--------00---------|

G|------------------|
D|------------------|
A|-4444444444444444-|
E|------------------|

G|-------|
D|-------|
A|-------|
E|-2~~~~-|
Suggest correction
comments
print report bad tab
5 comments total. Showing first comments.
0 reply
bass-stagg 50 Feb 19, 2006 09:03 AM

good tab but doesn't the verse go...

G|-----------
D|-----------
A|--2-2-000--
E|4---------2

0 reply
mikethecoug 259 Feb 19, 2006 09:04 AM

no

0 reply
jason_smiths 10 Jul 06, 2006 02:45 PM

nah its fourth fet on the a, common mistake to make good tab mate

guest
You may want to rate the tab now too:
select rating
Wanna post a correction for this tab? Suggest correction