Oops, an error
Loading. Please wait.

I Bet You Look Good On The Dancefloor Bass Tab

version 4
version 4
5,305 views 1 this week
7 commentsread comments
1 2 3 4 5
x 8
add to favorites
launch autoscroll
font size
0
reset
guitar tuner
Autoscroll
slow
fast
+/-
esc
set tempo
stop
Help us to improve Ultimate-Guitar.com Take our survey!
×
G|--------------|
D|--------------|
A|--------------|
E|2222-2222-2222 x3


Main Riff (0.18)

G|------------|
D|------------|
A|44-22-01----|
E|---------22-|

OR

G|------------|
D|------------|
A|44-22-------|
E|------54-22-|

Then

G|------------|
D|------------|
A|44-22-01----|
E|------------|2x

OR

G|------------|
D|------------|
A|44-22-------|
E|------54----|2x


Chorus (0.45)


G|---------------------------------|
D|----------------22222222---------|
A|--------00000000-----------------|
E|22222222----------------22222222-|


G|---------------------------------|
D|----------------22222222---------|
A|--------00000000--------44444444-|
E|22222222-------------------------|


Interlude (1.52)

G|---------------------------------|
D|--------22222222-----------------|
A|----------------22222222---------|
E|22222222----------------22222222-|

(Optional Intro riff at 2.06)

Chorus (2.27)

Finish on
G|-----------|
D|-----------|
A|-----------|
E|2~^--------| please rate this tab
Suggest correction
comments
print report bad tab
7 comments total. Showing first comments.
0 reply
hendo123456789 30 Jan 26, 2006 10:01 AM

the best of the three tabs here :)

0 reply
Bass_MaN_900 10 Jan 29, 2006 02:48 PM

yeh

0 reply
troy1007 72 Mar 06, 2006 06:15 PM

It's just wrong, sorry

guest
You may want to rate the tab now too:
select rating
Wanna post a correction for this tab? Suggest correction