Oops, an error
Loading. Please wait.

I Bet You Look Good On The Dancefloor Bass Tab

version 5
version 5
1,312 views 1 this week
no commentswrite comment
1 2 3 4 5
please rate
add to favorites
launch autoscroll
font size
0
reset
guitar tuner
Autoscroll
slow
fast
+/-
esc
set tempo
stop
Help us to improve Ultimate-Guitar.com Take our survey!
×
Artist: Arctic Monkeys

Album: Whatever People Say I Am That's What I Am Not



All tabs by Pedro Zappa
-----------------------------------------------------------------------------
-----------------------------------------------------------------------------


2. I Bet You Look Good On The Dancefloor


Intro

G||--------------------|--------------------|
D||--------------------|--------------------|
A||--------------------|--------------------|
E||-22-----------------|-22-----------------|
    i    i    i    i     i    i    i    i
G||--------------------|--------------------|
D||--------------------|--------------------|
A||--------------------|--------------------|
E||-22---------------00|-22-----------------|
    i    i    i    i     i    i    i    i
G||--------------------|--------------------|
D||--------------------|--------------------|
A||--------------------|--------------------|
E||-22-----------------|-22-----------------|
    i    i    i    i     i    i    i    i
G||--------------------|--------------------|
D||--------------------|--------------------|
A||--------------------|--------------------|
E||-22-----------------|-22---------------00|
    i    i    i    i     i    i    i    i
G||--------------------|--------------------|
D||--------------------|--------------------|
A||--------------------|--------------------|
E||-2-2--2-2--2-2--2-2-|-2-2--2-2--2-2--2-2-|
    i    i    i    i     i    i    i    i
G||--------------------|--------------------|
D||--------------------|--------------------|
A||--------------------|--------------------|
E||-2-2--2-2--2-2--2-2-|-2-2--2-2--2-2--2-2-|
    i    i    i    i     i    i    i    i
G||--------------------|--------------------|
D||--------------------|--------------------|
A||--------------------|--------------------|
E||-2-2--2-2--2-2--2-2-|-2-2--2-2--2-2--2-2-|
    i    i    i    i     i    i    i    i
G||--------------------|--------------------|
D||--------------------|--------------------|
A||--------------------|--------------------|
E||-2-2--2-2--2-2--2-2-|-2-2--2-2--2-2--2-2-|
    i    i    i    i     i    i    i    i

G||--------------------|--------------------||  x4
D||--------------------|--------------------||
A||-4------2----2----0-|-0----0-------------||
E||--------------------|-----------2--------||
    i    i    i    i     i    i    i    i

Verse 1

G||--------------------|--------------------||  x7
D||--------------------|--------------------||
A||-4------2----2----0-|-0----0-------------||
E||--------------------|-----------2--------||
    i    i    i    i     i    i    i    i
G||--------------------|--------------------||
D||--------------------|--------------------||
A||-4------2----2------|-0------------------||
E||--------------------|-----------0--------||
    i    i    i    i     i    i    i    i

Chorus 1

G||--------------------|--------------------|
D||-------------2------|-------------2------|
A||-----------4----4---|-----------4----4---|
E||-2----2-------------|-2----2-------------|
    i    i    i    i     i    i    i    i
G||--------------------|--------------------|
D||-------------2------|-------------2------|
A||-0----0----4----4---|-0----0----4----4---|
E||--------------------|--------------------|
    i    i    i    i     i    i    i    i
G||--------------------|--------------------|
D||-------------2------|-------------2------|
A||-----------4----4---|-----------4----4---|
E||-0----0-------------|-0----0-------------|
    i    i    i    i     i    i    i    i
G||--------------------|--------------------|
D||----------------2---|-4-4--4-4-----------|
A||-----------4--------|-----------4----0---|
E||-2----2-------------|--------------------|
    i    i    i    i     i    i    i    i

G||--------------------|--------------------|
D||-------------2------|-------------2------|
A||-----------4----4---|-----------4----4---|
E||-2----2-------------|-2----2-------------|
    i    i    i    i     i    i    i    i
G||--------------------|--------------------|
D||-------------2------|-------------2------|
A||-0----0----4----4---|-0----0----4----4---|
E||--------------------|--------------------|
    i    i    i    i     i    i    i    i
G||--------------------|--------------------|
D||-------------2------|-------------2------|
A||-----------4----4---|-----------4----4---|
E||-0----0-------------|-0----0-------------|
    i    i    i    i     i    i    i    i
G||--------------------|--------------------|
D||--------------------|--------------------|
A||-4-4--4-4--4-4--4-4-|-4-4--4-4--4-4--4-4-|
E||--------------------|--------------------|
    i    i    i    i     i    i    i    i

G||--------------------|--------------------||  x4
D||--------------------|--------------------||
A||-4------2----2----0-|-0----0-------------||
E||--------------------|-----------2--------||
    i    i    i    i     i    i    i    i

Verse 2

G||--------------------|--------------------||  x7
D||--------------------|--------------------||
A||-4------2----2----0-|-0----0-------------||
E||--------------------|-----------2--------||
    i    i    i    i     i    i    i    i
G||--------------------|--------------------||
D||--------------------|--------------------||
A||-4------2----2------|-0------------------||
E||--------------------|-----------0--------||
    i    i    i    i     i    i    i    i

Chorus 2

G||--------------------|--------------------|
D||-------------2------|-------------2------|
A||-----------4----4---|-----------4----4---|
E||-2----2-------------|-2----2-------------|
    i    i    i    i     i    i    i    i
G||--------------------|--------------------|
D||-------------2------|-------------2------|
A||-0----0----4----4---|-0----0----4----4---|
E||--------------------|--------------------|
    i    i    i    i     i    i    i    i
G||--------------------|--------------------|
D||-------------2------|-------------2------|
A||-----------4----4---|-----------4----4---|
E||-0----0-------------|-0----0-------------|
    i    i    i    i     i    i    i    i
G||--------------------|--------------------|
D||----------------2---|-4-4--4-4-----------|
A||-----------4--------|-----------4----0---|
E||-2----2-------------|--------------------|
    i    i    i    i     i    i    i    i

G||--------------------|--------------------|
D||-------------2------|-------------2------|
A||-----------4----4---|-----------4----4---|
E||-2----2-------------|-2----2-------------|
    i    i    i    i     i    i    i    i
G||--------------------|--------------------|
D||-------------2------|-------------2------|
A||-0----0----4----4---|-0----0----4----4---|
E||--------------------|--------------------|
    i    i    i    i     i    i    i    i
G||--------------------|--------------------|
D||-------------2------|-------------2------|
A||-----------4----4---|-----------4----4---|
E||-0----0-------------|-0----0-------------|
    i    i    i    i     i    i    i    i
G||--------------------|--------------------|
D||--------------------|--------------------|
A||-4----4-4--4-4--4---|-4-4--4-4--4-4--4---|
E||--------------------|--------------------|
    i    i    i    i     i    i    i    i
G||--------------------|--------------------|
D||--------------------|--------------------|
A||-0----0-0----0--0---|-0----0-0----0--0---|
E||--------------------|--------------------|
    i    i    i    i     i    i    i    i
G||--------------------|--------------------|
D||--------------------|--------------------|
A||-7----7-7----7--7---|-7----7-7----7--7---|
E||--------------------|--------------------|
    i    i    i    i     i    i    i    i
G||--------------------|--------------------|
D||--------------------|--------------------|
A||-9-9--9-9--9-9--9-9-|-9-9--9-9--9-9--9-9-|
E||--------------------|--------------------|
    i    i    i    i     i    i    i    i
G||--------------------|--------------------|
D||--------------------|--------------------|
A||-9-9--9-9--9-9--9-9-|-9-9--9-9--9-9--9-9-|
E||--------------------|--------------------|
    i    i    i    i     i    i    i    i

G||--------------------|--------------------|
D||--------------------|--------------------|
A||-0----0-0----0--0---|-0----0-0----0--0---|
E||--------------------|--------------------|
    i    i    i    i     i    i    i    i
G||--------------------|--------------------|
D||--------------------|--------------------|
A||-7----7-7----7--7---|-7----7-7----7--7---|
E||--------------------|--------------------|
    i    i    i    i     i    i    i    i


G||--------------------|--------------------|
D||--------------------|--------------------|
A||--------------------|--------------------|
E||-22-----------------|-22-----------------|
    i    i    i    i     i    i    i    i
G||--------------------|--------------------|
D||--------------------|--------------------|
A||--------------------|--------------------|
E||-22-----------------|-22---------------00|
    i    i    i    i     i    i    i    i
G||--------------------|--------------------|
D||--------------------|--------------------|
A||--------------------|--------------------|
E||-22-----------------|-22-----------------|
    i    i    i    i     i    i    i    i
G||--------------------|--------------------|
D||--------------------|--------------------|
A||--------------------|--------------------|
E||-22-----------------|-22---------------00|
    i    i    i    i     i    i    i    i
G||--------------------|--------------------|
D||--------------------|--------------------|
A||--------------------|--------------------|
E||-2-2--2-2--2-2--2-2-|-2-2--2-2--2-2--2-2-|
    i    i    i    i     i    i    i    i
G||--------------------|--------------------|
D||--------------------|--------------------|
A||--------------------|--------------------|
E||-2-2--2-2--2-2--2-2-|-2-2--2-2--2-2--2-2-|
    i    i    i    i     i    i    i    i
G||--------------------|--------------------|
D||--------------------|--------------------|
A||--------------------|--------------------|
E||-2-2--2-2--2-2--2-2-|-2-2--2-2--2-2--2-2-|
    i    i    i    i     i    i    i    i
G||--------------------|--------------------|
D||--------------------|--------------------|
A||--------------------|--------------------|
E||-2-2--2-2--2-2--2-2-|-2-2--2-2--2-2--2-2-|
    i    i    i    i     i    i    i    i

G||--------------------|--------------------|
D||--------------------|--------------------|
A||/9-9--9-9--9-9--9-9-|--------------------|
E||--------------------|-2------------------|
    i    i    i    i     i    i    i    i

Chorus 3

G||--------------------|--------------------|
D||-------------2------|-------------2------|
A||-0----0----4----4---|-0----0----4----4---|
E||--------------------|--------------------|
    i    i    i    i     i    i    i    i
G||--------------------|--------------------|
D||-------------2------|-------------2------|
A||-----------4----4---|-----------4----4---|
E||-0----0-------------|-0----0-------------|
    i    i    i    i     i    i    i    i
G||--------------------|--------------------|
D||----------------2---|-4-4--4-4-----------|
A||-----------4--------|-----------4----0---|
E||-2----2-------------|--------------------|
    i    i    i    i     i    i    i    i

G||--------------------|--------------------|
D||-------------2------|-------------2------|
A||-----------4----4---|-----------4----4---|
E||-2----2-------------|-2----2-------------|
    i    i    i    i     i    i    i    i
G||--------------------|--------------------|
D||-------------2------|-------------2------|
A||-0----0----4----4---|-0----0----4----4---|
E||--------------------|--------------------|
    i    i    i    i     i    i    i    i
G||--------------------|--------------------|
D||-------------2------|-------------2------|
A||-----------4----4---|-----------4----4---|
E||-0----0-------------|-0----0-------------|
    i    i    i    i     i    i    i    i
G||--------------------|--------------------|
D||--------------------|--------------------|
A||-4-4--4-4--4-4--4-4-|-4--4--4---4----4---|
E||--------------------|--------------------|
    i    i    i    i     i    i    i    i

G||--------------------|--------------------|
D||--------------------|--------------------|
A||--------------------|--------------------|
E||-2------------------|--------------------|
    i    i    i    i     i    i    i    i


Tab by Pedro Zappa
-----------------------------------------------------------------------------
-----------------------------------------------------------------------------
Suggest correction
Give kudos to tab author, rate the tab!
1 2 3 4 5
comments
print report bad tab
guest
You may want to rate the tab now too:
select rating
Wanna post a correction for this tab? Suggest correction