Oops, an error
Loading. Please wait.

I Havent Got My Strange Bass Tab

version 1
version 1

Whole song

Interactive

1,243 views 1 this week
no commentswrite comment
1 2 3 4 5
please rate
add to favorites
launch autoscroll
font size
0
reset
guitar tuner
Autoscroll
slow
fast
+/-
esc
set tempo
stop
Help us to improve Ultimate-Guitar.com Take our survey!
×
Author
Difficulty
intermediate
G|----------------------------|
D|----------------------------|
A|----12-11--12-8--10---------|x8
E|10------------------11--13--|

Chorus:
G|----------------------------------------------------------------------------------------|
D|----------------------------------------------------------------------------------------|
A|10-10-10-8----------8-8-8---------------------12-11--11-11-12-----------12-11--11-11-12-|
E|-----------10-6-8-9-------8-6-5-6-8-10--10-10-----------------10--10-10-----------------|

G|-------------------------------|
D|-------------------------------|
A|10-10-10-8----------8-8-8-8-x--|
E|-----------10-6-8-9------------|

Verse:
G|----------------------------|
D|----------------------------|
A|----12-11--12-8--10---------|x2
E|10------------------11--13--|

G|---------------------|  |---|
D|---------------------|  |---|
A|5------------3-6--8--|x3|x--|
E|---5-4--5-1----------|  |---|

Chorus:
G|----------------------------------------------------------------------------------------|
D|----------------------------------------------------------------------------------------|
A|10-10-10-8----------8-8-8---------------------12-11--11-11-12-----------12-11--11-11-12-|
E|-----------10-6-8-9-------8-6-5-6-8-10--10-10-----------------10--10-10-----------------|

G|------------------------------------|
D|------------------------------------|
A|10-10-10-8----------8-8-8-----------|
E|-----------10-6-8-9-------8-6-5-6-8-|

G|------------------------------------|
D|-------7-6--6-6-7-5--5-5-7--------7-|
A|5--5-5---------------------8--8-8---|x2
E|------------------------------------|

G|----------------------------------|
D|------7-10-7---8-10-7---8-----7---|
A|5---5--------8--------8-----5---6-|x2
E|--6-----------------------6-------|

G|---|
D|---|
A|5--|
E|---|
Suggest correction
Give kudos to tab author, rate the tab!
1 2 3 4 5
comments
print report bad tab
guest
You may want to rate the tab now too:
select rating
Please do not post tabs as comments. Select "correction" instead!