Oops, an error
Loading. Please wait.

I Havent Got My Strange Bass Tab

version 2
version 2

Whole song

Interactive

1,876 views 1 this week
no commentswrite comment
1 2 3 4 5
3 more votes to show rating
add to favorites
launch autoscroll
font size
0
reset
guitar tuner
Autoscroll
slow
fast
+/-
esc
set tempo
stop
Help us to improve Ultimate-Guitar.com Take our survey!
×
Author
Difficulty
intermediate
Arctic Monkeys- I Haven't Got My Strange

It sounds to me like Nick uses a Big muff pi, but I couldnt find any sources so I could be wrong.

G|----------------------------------------------------------|
D|----------------------------------------------------------|
A|---5--12-11--10-8--11/--6-8-5--12-11--10-8--11/--6-8------|
E|----------------------------------------------------------| intro x 4

G|------------------------------------------------------------------------|
D|------------------------------------------------7-6-66-7------7-6-66-7--|
A|--10-10-10-10-10-10-10-10-8-8-8-8-8-8-8-8--5-55----------5-55-----------|
E|------------------------------------------------------------------------|

G|------------------------------------------------------------------------|
D|------------------------------------------------------------------------|
A|--10-10-10-10-10-10-10-10-8-8-8-----------------------------------------|
E|------------------------------------------------------------------------| chorus

G|----------------------------------------------------------|
D|----------------------------------------------------------|
A|---5--12-11--10-8--11/--6-8-5--12-11--10-8--11/--6-8------|
E|----------------------------------------------------------|

G|----------------------------------------------------------|
D|----------------------------------------------------------|
A|---5--12-11--10-8--6/--17-20-5--12-11--10-8--6/--17-20----|
E|----------------------------------------------------------|

G|----------------------------------------------------------|
D|----------------------------------------------------------|
A|---5--12-11--10-8--6/--17-20-5----------------------------|
E|----------------------------------------------------------|verse

break

G|------------------------------------------------------------------------|
D|------------------------------------------------7-6-66-7------7-6-66-7--|
A|--10-10-10-10-10-10-10-10-8-8-8-8-8-8-8-8--5-55----------5-55-----------|
E|------------------------------------------------------------------------|

G|------------------------------------------8---------8-------------------|
D|---------7-6-66-7-5-55-7------7---7-6-7-5---10----5---10----------10----|
A|----5-55-----------------3-33---5--------------11--------11-10-11-------|
E|------------------------------------------------------------------------|

G|-----------8---------8--------------------------8---------8----------------------|
D|---7-6-7-5---10----5---10----------10---7-6-7-5---10----5---10----------10----12-|
A|-5--------------11--------11-10-11----5--------------11--------11-10-11----11----|
E|---------------------------------------------------------------------------------|chorus/outro




Suggest correction
Give kudos to tab author, rate the tab!
1 2 3 4 5
comments
print report bad tab
guest
You may want to rate the tab now too:
select rating
Wanna post a correction for this tab? Suggest correction