Oops, an error
Loading. Please wait.
We have an official I Wanna Be Yours tab made by UG professional guitarists. Check out the tab »
×
1,126 views 18 this week
1 commentread comment
1 2 3 4 5
1 last vote to show rating
add to favorites
×
Save as Personal and add changes to this tab that will be seen only by you. Learn more ›
×
You can save this tab as Personal to edit and correct it or add notes. All changes will be seen only by you. Learn more »
launch autoscroll
font size
0
reset
how to read this tab
guitar tuner
backing track
0:00
0:00
edit
Autoscroll
slow
fast
+/-
esc
set tempo
stop
Author
***************************************************************************************************************
                                     *****I Wanna be Yours*****
***************************************************************************************************************
I pulled this together from bits and bobs across the internet. I reckon this version sounds better
to play along with the song, otherwise use the chord versions. Play it with up strums I think, strumming
definitely works better than plucking.
Tabbed by cobcanon


Intro
        e|--3----------|--8-----10-----|--3----------|--8-----10-----|
        B|--4----------|--9-----11-----|--4----------|--9-----11-----|
Perc.   G|--5----------|--10----12-----|--5----------|--10----12-----|
intro   D|--5----------|--10----12-----|--5----------|--10----12-----|
        A|-------------|---------------|-------------|---------------|
        E|-------------|---------------|-------------|---------------|

Verse
e|--3----------|--8-----10-----|         
B|--4----------|--9-----11-----|         
G|--5----------|--10----12-----|        
D|--5----------|--10----12-----|x4 
A|-------------|---------------|          
E|-------------|---------------|        

Pre Chorus
e|--8-----10-----|--3-----1--|--1-----3--|--3-----6--|
B|--9-----11-----|--4-----1--|--1-----3--|--4-----6--|
G|--10----12-----|--5-----1--|--1-----3--|--5-----7--|
D|--10----12-----|--5-----3--|--3-----5--|--5-----8--|
A|---------------|-----------|-----------|-----------|
E|---------------|-----------|-----------|-----------|

Chorus
e|--4-----|--3----6---|--4-----|--3-----|
B|--4-----|--4----6---|--4-----|--3-----|
G|--5-----|--5----7---|--5-----|--3-----|
D|--6-----|--5----8---|--6-----|--5-----|
A|--------|-----------|--------|--------|
E|--------|-----------|--------|--------|

Verse                                     *at least as deep..
e|--3----------|--8-----10-----|         |-------------|--8-----10-----|
B|--4----------|--9-----11-----|         |-------------|--9-----11-----|
G|--5----------|--10----12-----|         |-------------|--10----12-----|
D|--5----------|--10----12-----|x3       |-------------|--10----12-----|
A|-------------|---------------|         |-------------|---------------|
E|-------------|---------------|         |-------------|---------------|

Pre Chorus
e|--8-----10-----|--3-----1--|--1-----3--|--3-----6--|
B|--9-----11-----|--4-----1--|--1-----3--|--4-----6--|
G|--10----12-----|--5-----1--|--1-----3--|--5-----7--|
D|--10----12-----|--5-----3--|--3-----5--|--5-----8--|
A|---------------|-----------|-----------|-----------|
E|---------------|-----------|-----------|-----------|

Chorus
e|--4-----|   |--3----6---|--4-----|   |--3-----6--|
B|--4-----|   |--4----6---|--4-----|   |--4-----6--|
G|--5-----|   |--5----7---|--5-----|   |--5-----7--|
D|--6-----|x1 |--5----8---|--6-----|x3 |--5-----8--|
A|--------|   |-----------|--------|   |-----------|
E|--------|   |-----------|--------|   |-----------|

Solo (from marqiss excellent solo @solo tab on this site)
e|------------------------------------------------------|
B|------------------------------------------------------|
G|------------------------------------------------------|
D|-10---10-13-15-10---10-13-15-13-10-13---10-13-15-10---|
A|------------------------------------------------------|
E|------------------------------------------------------|

e|------------------------------------------------------------------------|
B|------------------------------------------------------------------------|
G|------------------------------------------------------------------------|
D|-10-13-15-17-18-17-15-13-10-13-15-10---10-13-15-13-10-13---10-13-15-----|
A|---------------------------------------------------------------------13-|
E|------------------------------------------------------------------------|

Solo (backing)
e|--4-----|   |--3----6---|--4-----|   |--3-------|
B|--4-----|   |--4----6---|--4-----|   |--4-------|
G|--5-----|   |--5----7---|--5-----|   |--5-------|
D|--6-----|x1 |--5----8---|--6-----|x3 |--5-------|
A|--------|   |-----------|--------|   |----------|
E|--------|   |-----------|--------|   |----------|

            
            
Suggest correction
Creating personal tab
Creating personal tab
You can edit any tab online and save it as your Personal.

You can edit, replace or remove any tab part or add personal notes – all changes will be seen only by you.

Personal tabs can be accessed anytime from any device, even offline.
Learn more »
Give kudos to tab author, rate the tab!
1 2 3 4 5
comments
print report bad tab
1 comment total.
0 reply
marqiss 318 Nov 10, 2016 08:12 AM

Hey good tab! i also wanted to do it but i was too lazy to do tab it xD one correction, the song ends on Gm not on Cm

guest
You may want to rate the tab now too:
select rating
Wanna post a correction for this tab? Suggest correction