Oops, an error
Loading. Please wait.

I Want It All Tab

version 1
version 1

Whole song

Interactive

26,542 views 69 this week
6 commentsread comments
1 2 3 4 5
x 16
add to favorites
launch autoscroll
font size
0
reset
how to read this tab
guitar tuner
Autoscroll
slow
fast
+/-
esc
set tempo
stop
Help us to improve Ultimate-Guitar.com Take our survey!
×
Author
Artist: Arctic Monkeys
Song: I Want It All 
Tabbed by: Tennessee90
Tuning: Standard

[Verse/Chorus] (all the same)
e|--------------------------------------------------------------------------------|
B|--------------------------------------------------------------------------------|
G|--------------------------------------------------------------------------------|
D|----5---5-5---7---7-7---8---8-8--10-10-10------7-7-7-7---7-7-7-7----------------|
A|----x---x-x---x---x-x---x---x-x---x---x-x------x-x-x-x---x-x-x-x----------------|
E|----3---3-3---5---5-5---6---6-6---8---8-8------5-5-5-5---5-5-5-5----------------|

[Bridge] 4x
e|--------------------------------------------------------------------------|
B|--------------------------------------------------------------------------|
G|--------------------------------------------------------------------------|
D|----5~--------7~---------8~-------10~------------7~-----------------------|
A|--------------------------------------------------------------------------|
E|--------------------------------------------------------------------------|

[Solo]
e|--------------------------------------------------------------------------|
B|-------------13-15-15b-13--10-8--------8----------------------------------|
G|----12h14-----------------------9~-------9~-------------------------------|
D|--------------------------------------------------------------------------|
A|--------------------------------------------------------------------------|
E|--------------------------------------------------------------------------|

e|----------------------------------------------------------------------------|
B|--------------13-15-15b-13--10-8------10-13-15-17-15-13-10------------------|
G|------12h14----------------------9~-----------------------------------------|
D|----------------------------------------------------------------------------|
A|----------------------------------------------------------------------------|
E|----------------------------------------------------------------------------|

(That is the ending of this solo. I'm not sure if it's perfect but
this is played 'til the end.)
e|----------------------------------------------------------------------------|
B|---------13s17-17-17-15-13--------------------------------------------------|
G|----------------------------------------------------------------------------|
D|----------------------------------------------------------------------------|
A|----------------------------------------------------------------------------|
E|----------------------------------------------------------------------------|

(During the sole you play the same octaves as in the verse until it ends.)

************************************

| /   slide up
| \   slide down
| h   hammer-on
| ~   vibrato
| x   Mute note
| b   Bend

************************************
Suggest correction
comments
print report bad tab
6 comments total. Showing first comments.
+1 reply
Robbiecass 10 Sep 26, 2013 05:54 PM

Great tab but i think all the 9s on 8 should be 8s

-1 reply
Robbiecass 10 Sep 26, 2013 05:56 PM

*D not 8 haha

0 reply
tennessee90 104 Sep 30, 2013 04:21 AM

aaahhh I see...that was a typo. I've corrected it :) thank you

guest
You may want to rate the tab now too:
select rating
Wanna post a correction for this tab? Suggest correction