Oops, an error
Loading. Please wait.

If You Found This Its Probably Too Late Bass Tab

version 1
version 1

Whole song

Interactive

534 views 1 this week
2 commentsread comments
1 2 3 4 5
worth learning
x 3
add to favorites
launch autoscroll
font size
0
reset
guitar tuner
Tab Pro tools
  • play this tab
  • loop segment
  • change instrument
  • show fretboard
  • metronome
Autoscroll
slow
fast
+/-
esc
set tempo
stop
Contributor
G---------|
D---------|
A-----3-6-|
E--5\-----|

G------------------------------------|
D------------------------------------|
A----------99-77-55---------55-33-00-|
E--555-555----------555-555----------|

basically thats it...there are some slight variations now and then, such as...

G------------------------------------|
D------------------------------------|
A----------77-55-33---------55-33-00-|
E--555-555----------555-555----------|

and..

G-------|
D-------|
A-----3-|
E--5\---|
comments
We did not receive enough feedback on this tab! Please rate:
print report bad tab
1 2 3 4 5
2 comments total.
0 reply
mcfearless wrote on May 14 2007, 07:29 pm

not the right lines

+1 reply
marooncat1600 wrote on March 27 2008, 07:49 pm

G------------------------------------|
D------------------------------------|
A----------77-55-33---------55-33-00-|
E--555-555----------555-555----------| 35 seconds




G------------------------------------|
D------------------------------------|
A----------99-77-55---------55-33-00-|
E--555-555----------555-555----------| 40 seconds

I want to post or [tab]
guest
You may want to rate the tab now too:
select rating
Please do not post tabs as comments. Select "correction" instead!