Oops, an error
Loading. Please wait.

If You Found This Its Probably Too Late Bass Tab

version 2
version 2

Whole song

Interactive

1,449 views 6 this week
no commentswrite comment
1 2 3 4 5
x 3
add to favorites
launch autoscroll
font size
0
reset
guitar tuner
Autoscroll
slow
fast
+/-
esc
set tempo
stop
Help us to improve Ultimate-Guitar.com Take our survey!
×
Author
Difficulty
intermediate
-------------------------------------------------------------------------------
	IF YOU FOUND THIS IT'S PROBABLY TOO LATE - Arctic Monkeys
-------------------------------------------------------------------------------

Tab is really simple but you might have trouble with the speed if you're just starting out.

verse
G|-------------|
D|-------------|
A|-------6-----|
E|-5/--5-------|

last time
G|-----------|
D|-----------|
A|-----6-----|
E|-5/--------|

'chorus'
G|------------------------------------|
D|------------------------------------|
A|--------66-55-33---------55-33------|
E|-555-55-----------444-44-------44---|

G|------------------------------------|
D|------------------------------------|
A|--------88-77-33--------55-33-------|
E|-555-55----------444-44-------44----|
Suggest correction
Give kudos to tab author, rate the tab!
1 2 3 4 5
comments
print report bad tab
guest
You may want to rate the tab now too:
select rating
Wanna post a correction for this tab? Suggest correction