Oops, an error
Loading. Please wait.

If You Found This Its Probably Too Late Tab

version 2
version 2

Whole song

Interactive

750 views 1 this week
no commentswrite comment
1 2 3 4 5
please rate
add to favorites
launch autoscroll
font size
0
reset
how to read this tab
guitar tuner
Autoscroll
slow
fast
+/-
esc
set tempo
stop
Help us to improve Ultimate-Guitar.com Take our survey!
×
Difficulty
novice
This is a cool song by Arctic Monkeys. I love the fakeout string intro!!! There wasnt a 
tab as a whole, so I figured it out. There are a few riffs used through the whole song. 
switch off, so a verse actually uses both riffs.


String Intro (0:00-0:24)


Intro Riff (0:25)
-------------

Guitar 1 (4 Times)

e|-----------------------------------------------------------|
B|-----------------------------------------------------------|
G|--------------------9--------------------------------------|
D|-777----3----777----9--------------------------------------|
A|-777----3----777----7--------------------------------------|
E|-555----1----555-------------------------------------------|

Guitar 2 (4 Times)

e|-12/--17---12/--17---12/--17---11/--18--------------------


Verse Riff (0:33-42)
--------------

Guitar 1 (1 Time)

e|-----------------------------------------------------------------------------------------------|
B|-----------------------------------------------------------------------------------------------|
G|----------88--77--55------------77--55---------------------------------------------77--55------|
D|-777--77--88--77--55---666--66--77--55--66---777--77--10-10--99-----------666--66--77--55--66--|
A|-777--77--66--55--33---666--66--55--33--66---777--77---8-8---77--10-10----666--66--55--33--66--|
E|-555--55---------------444--44----------44---555--55--------------8-8-----444--44----------44--|


Intro Riff (0:43-0:50)
-------------

Guitar 1 (4 Times)

e|-----------------------------------------------------------|
B|-----------------------------------------------------------|
G|--------------------9--------------------------------------|
D|-777----3----777----9--------------------------------------|
A|-777----3----777----7--------------------------------------|
E|-555----1----555-------------------------------------------|


Verse Riff (0:51-1:08)
--------------

(2 Times)

e|-----------------------------------------------------------------------------------------------|
B|-----------------------------------------------------------------------------------------------|
G|----------88--77--55------------77--55---------------------------------------------77--55------|
D|-777--77--88--77--55---666--66--77--55--66---777--77--10-10--99-----------666--66--77--55--66--|
A|-777--77--66--55--33---666--66--55--33--66---777--77---8-8---77--10-10----666--66--55--33--66--|
E|-555--55---------------444--44----------44---555--55--------------8-8-----444--44----------44--|

Guitar 1 (4 Times)

Intro Riff (1:09-1:17)
-------------

e|-----------------------------------------------------------|
B|-----------------------------------------------------------|
G|--------------------9--------------------------------------|
D|-777----3----777----9--------------------------------------|
A|-777----3----777----7--------------------------------------|
E|-555----1----555-------------------------------------------|

Outro (1:17-1:28)
-------------

(1 Time)

e|-----------------------------------------------------------------------------------------------|
B|-----------------------------------------------------------------------------------------------|
G|----------88--77--55------------77--55---------------------------------------------77--55------|
D|-777--77--88--77--55---666--66--77--55--66---777--77--10-10--99-----------666--66--77--55--66--|
A|-777--77--66--55--33---666--66--55--33--66---777--77---8-8---77--10-10----666--66--55--33--66--|
E|-555--55---------------444--44----------44---555--55--------------8-8-----444--44----------44--|

With Intro riff......

(1 Time)

e|-12/--17---12/--17---12/--17---11/--18--------------------|

|||||END|||||||


Pretty Short! Yes without string intro only bout a minute! But I love that it just rocks 
face off!!!!!!


Thanks! Any suggestions, e-mail t_muffincake@yahoo.com. LONG LIVE TABBERS!!!
Suggest correction
Give kudos to tab author, rate the tab!
1 2 3 4 5
comments
print report bad tab
guest
You may want to rate the tab now too:
select rating
Please do not post tabs as comments. Select "correction" instead!