Oops, an error
Loading. Please wait.

If You Were There Beware Bass Tab

version 1
version 1

Interactive

23,499 views 18 this week
6 commentsread comments
1 2 3 4 5
x 12
add to favorites
launch autoscroll
font size
0
reset
guitar tuner
Autoscroll
slow
fast
+/-
esc
set tempo
stop
Help us to improve Ultimate-Guitar.com Take our survey!
×
Author
Difficulty
novice
Tabbed By : Clark J
e-mail:

Tuning:EADG
0:00-0:28,0:35-0:42,3:58-4:12,4:19-4:26----------------------------------------|
G|-----------------------------------------------------------------------------|
D|--5-----5-----5-----5---12/10101010101/141414/161616-------------------------|
A|7---6-7---6-7---6-7---5------------------------------------------------------|
E|-----------------------------------------------------------------------------|
0:28-0:35,4:12-4:19
G|-----------------------------------------------------------------------------|
D|--5--------5-----------------------------------------------------------------|
A|7---6-7x-7---6-7x------------------------------------------------------------|
E|------------------10/88888/121212/141414-------------------------------------|
0:42-1:10,1:25-1:32,1:39-2:07,2:21-2:35----------------------------------------|
G|-----------------------------------------------------------------------------|
D|-----------------------------------------------------------------------------|
A|-----------------------------------------------------------------------------|
E|8/12121212/8/12121212/8888-8888----------------------------------------------|
1:32-1:39
G|---------------------------------------------------------------------------|
D|------------------------------1010/99--------------------------------------|
A|---------------------------------------------------------------------------|
E|8/12121212/8/12121212/8888-88----------------------------------------------|
2:07-2:21
G|--------------------------------(second time)----------------------------- |
D|--------------------------------1010/99------------------------------------|
A|---------------------------------------------------------------------------|
E|12~~~~~~~~~~~--8~~~~~~--8~~~~~~--------------------------------------------|
2:35-2:53
G|---------------------------------------------------------------------------|
D|---------------------------------------------------------------------------|
A|----------3-33-2-22--------------------------------------------------------|
E|5-55-3-33-----------0-00-7-77-0-00-7-7/5-----------------------------------|
2:53-3:10
G|-----------------------------------------------------------------------------------|
D|-----------------------------------------------------------------------------------|
A|----------3-33-2-22-3-33------2-22-5-55-3-33------2-22------3-33------2-22-22------|
E|5-55-3-33----------------3-33----------------3-33------2-22------3-33---------0~~~~|
4:26-end
G|---------------------------------------------------------------------------|
D|5~~~~~~~~--5-4-3-2x--------------------------------------------------------|
A|---------------------------------------------------------------------------|
E|---------------------------------------------------------------------------|

| /  slide up
| \  slide down
| h  hammer-on
| p  pull-off
| ~  vibrato
| +  harmonic
| x  Mute note
===============================================================================
Suggest correction
comments
print report bad tab
6 comments total. Showing first comments.
0 reply
vj tony 10 May 22, 2007 01:02 PM

good tab mate

0 reply
Table Salt 10 Aug 19, 2007 11:13 PM

I like your format, very nice.

0 reply
benblakeway14 10 Sep 17, 2007 12:44 PM

Great tab but I don't like the layout all that much.

guest
You may want to rate the tab now too:
select rating
Wanna post a correction for this tab? Suggest correction