Oops, an error
Loading. Please wait.

If You Were There Beware Tab

version 1
version 1

Whole song

Interactive

53,840 views 30 this week
5 commentsread comments
1 2 3 4 5
x 12
add to favorites
launch autoscroll
font size
0
reset
how to read this tab
guitar tuner
Autoscroll
slow
fast
+/-
esc
set tempo
stop
Help us to improve Ultimate-Guitar.com Take our survey!
×
Difficulty
intermediate
If You Were There, Beware - Arctic Monkeys

[Intro]
Guitar 1
e|---------|
B|---------|
G|---------|
D|--5--5--5| x17
A|-7-67-67-|
E|---------|

 Guitar 1
e|--------|----------|
B|--8--8--|-5-87-5-87|
G|-9-89-89|5----5----|
D|--------|----------|
A|--------|----------|
E|--------|----------|

 Guitar 2
e|---------|---------------|
B|---------|---------------|
G|---------|---------------|
D|--5--5--5|---------------|
A|-7-67-67-|5-33333-777-999|
E|---------|---------------|

[Verse]
e|----|
B|----|
G|----|
D|-9-5|
A|-9-5|
E|-7-3|

 Guitar 1           Guitar 2
e|------7-------7-|------------------------|
B|-585-7-7-585-7-7|------------------------|
G|----------------|------------------------|
D|----------------|---------9------------9-|
A|----------------|7-10-7--9-9-7--10-7--9-9|
E|----------------|------------------------|

[Verse]
e|----|
B|----|
G|-9-5|
D|-9-5|
A|-7-3|
E|----|

[Solo]
e|---------------------------|
B|---------------------------|
G|---------------------------|
D|---------------------------|
A|--------333-22-2---222---22|      x2
E|-555-333--------000---000--|

e|------------------------------|
B|------------------------------|
G|------------------------------|
D|------------------------------|
A|--------333-22-2-333---222-555|
E|-555-333------------333-------|

e|--------------------------|
B|--------------------------|
G|--------------------------|
D|-------------------------2|
A|-333---222---333---22222-2|
E|----333---222---333------0|(ring)

 Guitar 1 "there's a circle of witches..."
e|---------|
B|---------|
G|---------|
D|--5-5-5-5|
A|-6-7-6-7-|
E|---------|

 Guitar 2 (background) "i dunno what it is..."
e|------------|
B|------------|
G|-77-54-77-54|
D|------------|
A|------------|
E|------------|

 Guitar 1
e|-----------|----------|
B|-----------|----------|
G|-----------|7-5555-999|
D|--5--5--67-|----------|
A|-7-67-67---|----------|
E|-----------|----------|

[Intro]
 Guitar 1
e|--------|----------|
B|--8--8--|-5-87-5-87|
G|-9-89-89|5----5----|
D|--------|----------|
A|--------|----------|
E|--------|----------|

 Guitar 2
e|---------|---------------|
B|---------|---------------|
G|---------|---------------|
D|--5--5--5|---------------|
A|-7-67-67-|5-33333-777-999|
E|---------|---------------|

[Ending]
 Guitar 1         Guitar 2
e|-------------|-------------|
B|-8(ring) 8765|-------------|
G|-------------|-------------|
D|-------------|5 (ring) 5432|
A|-------------|-------------|
E|-------------|-------------|
Suggest correction
comments
print report bad tab
5 comments total. Showing first comments.
+1 reply
shedboy 10 May 03, 2007 03:06 PM

Good tab BUT the way Alex plays it is like this...

E---------|
B---------|
G---------|
D--10---- 10
A-12-11 10- 11 10-|
E---------|

0 reply
guitar-pro-user 31 Mar 03, 2009 07:34 PM

shedboy, if you play it with the original version on the favourite worst nightmare thats way off

0 reply
Rhys.J 211 Jul 10, 2011 08:08 AM

The verse chords are wrong. The song is in Em, and the chords are Em (x 7 9 9 8 7) and C (x 10 10 9 8 x).

guest
You may want to rate the tab now too:
select rating
Wanna post a correction for this tab? Suggest correction