Oops, an error
Loading. Please wait.

If You Were There Beware Bass Tab

version 2
version 2

Interactive

4,221 views 9 this week
no commentswrite comment
1 2 3 4 5
excellent!
x 4
add to favorites
launch autoscroll
font size
0
reset
guitar tuner
Autoscroll
slow
fast
+/-
esc
set tempo
stop
Help us to improve Ultimate-Guitar.com Take our survey!
×
Hello everyone, this is Clark J's tab in a format i find a little bit easier to read...

Tabbed By : Clark J


0:00-0:28

G|-----------------------------------------------------------------------------|
D|--5-----5-----5-----5---12/10101010101/141414/161616-------------------------|
A|7---6-7---6-7---6-7---5------------------------------------------------------|
E|-----------------------------------------------------------------------------|

0:28-0:35

G|-----------------------------------------------------------------------------|
D|--5--------5-----------------------------------------------------------------|
A|7---6-7x-7---6-7x------------------------------------------------------------|
E|------------------10/88888/121212/141414-------------------------------------|

0:35-0:42

G|-----------------------------------------------------------------------------|
D|--5-----5-----5-----5---12/10101010101/141414/161616-------------------------|
A|7---6-7---6-7---6-7---5------------------------------------------------------|
E|-----------------------------------------------------------------------------|

0:42-1:10

G|-----------------------------------------------------------------------------|
D|-----------------------------------------------------------------------------|
A|-----------------------------------------------------------------------------|
E|8/12121212/8/12121212/8888-8888----------------------------------------------|

1:10-1:25

BREAK

1:25-1:32

G|-----------------------------------------------------------------------------|
D|-----------------------------------------------------------------------------|
A|-----------------------------------------------------------------------------|
E|8/12121212/8/12121212/8888-8888----------------------------------------------|

1:32-1:39

G|---------------------------------------------------------------------------|
D|------------------------------1010/99--------------------------------------|
A|---------------------------------------------------------------------------|
E|8/12121212/8/12121212/8888-88----------------------------------------------|


1:39-2:07

G|-----------------------------------------------------------------------------|
D|-----------------------------------------------------------------------------|
A|-----------------------------------------------------------------------------|
E|8/12121212/8/12121212/8888-8888----------------------------------------------|

2:07-2:21

G|--------------------------------(second time)----------------------------- |
D|--------------------------------1010/99------------------------------------|
A|---------------------------------------------------------------------------|
E|12~~~~~~~~~~~--8~~~~~~--8~~~~~~--------------------------------------------|

2:21-2:35

G|-----------------------------------------------------------------------------|
D|-----------------------------------------------------------------------------|
A|-----------------------------------------------------------------------------|
E|8/12121212/8/12121212/8888-8888----------------------------------------------|

2:35-2:53

G|---------------------------------------------------------------------------|
D|---------------------------------------------------------------------------|
A|----------3-33-2-22--------------------------------------------------------|
E|5-55-3-33-----------0-00-7-77-0-00-7-7/5-----------------------------------|

2:53-3:10

G|-----------------------------------------------------------------------------------|
D|-----------------------------------------------------------------------------------|
A|----------3-33-2-22-3-33------2-22-5-55-3-33------2-22------3-33------2-22-22------|
E|5-55-3-33----------------3-33----------------3-33------2-22------3-33---------0~~~~|


3:10-3:58

BREAK

3:58-4:12

G|-----------------------------------------------------------------------------|
D|--5-----5-----5-----5---12/10101010101/141414/161616-------------------------|
A|7---6-7---6-7---6-7---5------------------------------------------------------|
E|-----------------------------------------------------------------------------|

4:12-4:19

G|-----------------------------------------------------------------------------|
D|--5--------5-----------------------------------------------------------------|
A|7---6-7x-7---6-7x------------------------------------------------------------|
E|------------------10/88888/121212/141414-------------------------------------|

4:19-4:26

G|-----------------------------------------------------------------------------|
D|--5-----5-----5-----5---12/10101010101/141414/161616-------------------------|
A|7---6-7---6-7---6-7---5------------------------------------------------------|
E|-----------------------------------------------------------------------------|

4:26-end
G|---------------------------------------------------------------------------|
D|5~~~~~~~~--5-4-3-2x--------------------------------------------------------|
A|---------------------------------------------------------------------------|
E|---------------------------------------------------------------------------|



Suggest correction
comments
print report bad tab
guest
You may want to rate the tab now too:
select rating
Please do not post tabs as comments. Select "correction" instead!