Oops, an error
Loading. Please wait.

If You Were There Beware Tab

version 2
version 2

Whole song

Interactive

46,999 views 33 this week
7 commentsread comments
1 2 3 4 5
excellent!
x 18
add to favorites
launch autoscroll
font size
0
reset
how to read this tab
guitar tuner
Autoscroll
slow
fast
+/-
esc
set tempo
stop
Help us to improve Ultimate-Guitar.com Take our survey!
×
Author
Bass Intro

e|---|
B|---|
G|---|
D|-5-|   x17
A|7-6|
E|---|

Once you get to the 13th

e|---|
B|---|
G|---|
D|-5-|  
A|7-6|
E|---|

Alex plays this

e|------------------------|------------------|
B|------------------------|------------------|
G|------------------------|------------------|
D|--10----10----10----10--|------------------|
A|12--1112--1112--1112--11|5-33333333-777-999|
E|------------------------|------------------|

Then play both guitars at the same time

Part 1

Jamie

e|------------|------------|
B|-8--8--8--8-|-5-87~-5-87~|
G|9-89-89-89-8|5-----5-----|
D|------------|------------|  x2
A|------------|------------|
E|------------|------------|

Alex

e|------------------------|------------------|
B|------------------------|------------------|
G|------------------------|------------------|
D|--10----10----10----10--|------------------|  x2
A|12--1112--1112--1112--11|5-33333333-777-999|
E|------------------------|------------------|

Part 2

Jamie

e|--------------------|------------|
B|-8-------8-------8--|-5-87~-5-87~|
G|9-89----9-89----9-89|5-----5-----|
D|--------------------|------------| 
A|--------------------|------------|
E|--------------------|------------|

Alex

e|--------------------------------|------------------|
B|--------------------------------|------------------|
G|--------------------------------|------------------|
D|--10----------10----------10----|------------------|
A|12--1112----12--1112----12--1112|5-33333333-777-999|
E|--------------------------------|------------------|

Part 3

Jamie

e|------------|------------|
B|-8--8--8--8-|-5-87~-5-87~|
G|9-89-89-89-8|5-----5-----|
D|------------|------------|
A|------------|------------|
E|------------|------------|

Alex

e|------------------------|------------------|
B|------------------------|------------------|
G|------------------------|------------------|
D|--10----10----10----10--|------------------|
A|12--1112--1112--1112--11|5-33333333-777-999|
E|------------------------|------------------|

Verse

e|---|
B|---|
G|---|
D|9-5|
A|9-5|
E|7-3|


Play both guitars at the same time

Jamie               

e|------7---------7-|
B|585--7-7--585--7-7|
G|------------------|
D|------------------|
A|------------------|
E|------------------|

Alex

e|--------------------|
B|--------------------|
G|--------------------|
D|-------9----------9-|
A|7107--9-9--7107--9-9|
E|--------------------|

Verse

E----|
B|---|
G|9-5|
D|9-5|
A|7-3|
E|---|

Solo

e|--------------------------|
B|--------------------------|
G|--------------------------|
D|--------------------------|
A|-------333-22-2---222---22|      x2
E|555-333--------000---000--|


e|-----------------------------|
B|-----------------------------|
G|-----------------------------|
D|-----------------------------|
A|-------333-22-2-333---222-555|
E|555-333------------333-------|


e|--------------------------|
B|--------------------------|
G|--------------------------|
D|------------------------2~|
A|333---222---333---22222-2~|
E|---333---222---333------0~|


Play both guitars at the same time

Jamie

e|----------------|
B|----------------|
G|----------------|
D|-5-5-5-5-5-5-5-5|
A|6-7-6-7-6-7-6-7-|
E|----------------|

Alex

e|-----------------------|
B|-----------------------|
G|77-54-77-54-77-54-77-54|
D|-----------------------|
A|-----------------------|
E|-----------------------|

Then Alex play this

e|------------------------|----------|
B|------------------------|----------|
G|------------------------|7-5555-999|
D|--10----10----10----10--|----------|
A|12--1112--1112--1112--11|----------|
E|------------------------|----------|

Break for a few seconds then just Alex plays this

e|------------------------|------------------|
B|------------------------|------------------|
G|------------------------|------------------|
D|--10----10----10----10--|------------------|
A|12--1112--1112--1112--11|5-33333333-777-999|
E|------------------------|------------------|


Then play both guitars at the same time

Part 1

Jamie

e|------------|------------|
B|-8--8--8--8-|-5-87~-5-87~|
G|9-89-89-89-8|5-----5-----|
D|------------|------------|  x2
A|------------|------------|
E|------------|------------|

Alex

e|------------------------|------------------|
B|------------------------|------------------|
G|------------------------|------------------|
D|--10----10----10----10--|------------------|  x2
A|12--1112--1112--1112--11|5-33333333-777-999|
E|------------------------|------------------|

Part 2

Jamie

e|---------------|------------|
B|-8-------8-----|-5-87~-5-87~|
G|9-89----9-89---|5-----5-----|
D|---------------|------------| 
A|---------------|------------|
E|---------------|------------|

Alex

e|-----------------------|------------------|
B|-----------------------|------------------|
G|-----------------------|------------------|
D|--10----------10-------|------------------|
A|12--1112----12--1112---|5-33333333-777-999|
E|-----------------------|------------------|

Part 3

Jamie

e|------------|------------|
B|-8--8--8--8-|-5-87~-5-87~|
G|9-89-89-89-8|5-----5-----|
D|------------|------------|
A|------------|------------|
E|------------|------------|

Alex

e|------------------------|------------------|
B|------------------------|------------------|
G|------------------------|------------------|
D|--10----10----10----10--|------------------|
A|12--1112--1112--1112--11|5-33333333-777-999|
E|------------------------|------------------|

Play both guitars at the same time

Jamie           

e|---------|
B|8~~~~8765|
G|---------|
D|---------|
A|---------|
E|---------|

Alex

e|---------|
B|---------|
G|---------|
D|5~~~~5432|
A|---------|
E|---------|
Suggest correction
comments
print report bad tab
7 comments total. Showing first comments.
0 reply
oasislad06 129 wrote on July 18 2007, 03:10 pm

any chance of chords mate

+1 reply
Hamz 121 wrote on October 5 2007, 01:22 pm

Em C Cm
If you were there, beware the serpent soul pinchers

That should give you a bit of an idea. The Cm is only there on some lines, not others, and normally only when there's no singing.

+2 reply
Hamz 121 wrote on October 5 2007, 01:24 pm

Hmmm, it seems to have deleted the distances between the chords:

(Em)If you were there, beware the serpent soul (C)pinchers ((Cm))

guest
You may want to rate the tab now too:
select rating
Wanna post a correction for this tab? Suggest correction