Oops, an error
Loading. Please wait.

If You Were There Beware Bass Tab

version 3
version 3

Interactive

734 views 1 this week
no commentswrite comment
1 2 3 4 5
please rate
add to favorites
launch autoscroll
font size
0
reset
guitar tuner
Tab Pro tools
  • play this tab
  • loop segment
  • change instrument
  • show fretboard
  • metronome
×
Best way to learn
"If You Were There Beware"
Autoscroll
slow
fast
+/-
esc
set tempo
stop
Contributor
Difficulty
novice
Intro:
G|----------|
D|--5-----5-|
A|7---6-7---|
E|----------|

G|------------|
D|----5-----5-|
A|6-7---6-7---| x5
E|------------|

G|------------------------------------|
D|12-11-11-11-11-11/12/14-14-15-16-16-|
A|------------------------------------|
E|------------------------------------|

G|------------|
D|----5-----5-|
A|6-7---6-7---| x2
E|------------|

G|---------------------------------------|
D|---------------------------------------|
A|---------------------------------------|
E|13-12-12-12-12-12--14-14-14--16-16-16--|

G|------------|
D|----5-----5-|
A|6-7---6-7---| x2
E|------------|

G|---------------------------------------|
D|---------------------------------------|
A|---------------------------------------|
E|13-12-12-12-12-12--14-14-14--16-16-16--|

G|--------|
D|----5---|
A|6-7---6-| x2
E|--------|

G|---------------------------------------|
D|---------------------------------------|
A|---------------------------------------|
E|13-12-12-12-12-12--14-14-14--16-16-16--|

G|------------|
D|----5-----5-|
A|6-7---6-7---| x2
E|------------|

G|---------------------------------------|
D|---------------------------------------|
A|---------------------------------------|
E|13-12-12-12-12-12--14-14-14--16-16-16--|

Verse 1:

G|-------------------------------------------------|
D|-------------------------------------------------|
A|3/7-7-7-7~-3/7-7-7-7~--3-3--3-3-3--3-3-3--3-3-3--|x4
E|-------------------------------------------------|

No bass during the guitar synth

Chorus
G|-----------------------------------------------|
D|-----------------------------------------------|
A|3/7-7-7-7~-3/7-7-7-7~--3--3-3-3-3--3--3-3-3-3--|
E|-----------------------------------------------|

G|------------------------------------------6-6-5-5--|
D|---------------------------------------------------|
A|3/7-7-7-7~-3/7-7-7-7~--3--3-3-3-3--3--3-3----------|
E|---------------------------------------------------|

G|-----------------------------------------------|
D|-----------------------------------------------|
A|3/7-7-7-7~-3/7-7-7-7~--3--3-3-3-3--3--3-3-3-3--|
E|-----------------------------------------------|

G|--------------------/6-6-5-5--|
D|------------------------------|
A|7~--3~--3~--7~--3~------------|
E|------------------------------|

G|-----------------------------------------------|
D|-----------------------------------------------|
A|3/7-7-7-7~-3/7-7-7-7~--3--3-3-3-3--3--3-3-3-3--|x2
E|-----------------------------------------------|

Bridge:
G|----------------------------------------|
D|----------------------------------------|
A|----------2-22-3-33------2-22------2-2--|x2
E|5-55-3-33-----------3-33------3-33------|

G|------------------------------------------------------------------|
D|------------------------------------------------------------------|
A|----------3-33-2-22-4-44------3-33-7-77-3-33------2-22------2-22--|
E|5-55-3-33----------------5-55----------------5-55------3-33-------|

G|----------------------|
D|----------------------|
A|----------------------|
E|5-55--5-5-5-5-5-0~~~--|

Outro:
G|-------------|
D|-------------|
A|-------------|
E|13-14-14-14--|

G|-------------------------|
D|--5-----5-----5-----5----|
A|7---6-7---6-7---6-7---6--|
E|-------------------------|

G|---------------------------------------|
D|---------------------------------------|
A|---------------------------------------|
E|13-12-12-12-12-12--14-14-14--16-16-16--|

G|-------------------------|
D|--5-----5-----5-----5----|
A|7---6-7---6-7---6-7---6--|
E|-------------------------|

G|---------------------------------------|
D|---------------------------------------|
A|---------------------------------------|
E|13-12-12-12-12-12--14-14-14--16-16-16--|

G|---------|
D|---5-----|
A|-7---6-7-|x2
E|---------|

G|---------------------------------------|
D|---------------------------------------|
A|---------------------------------------|
E|13-12-12-12-12-12--14-14-14--16-16-16--|

G|-----------------------|
D|--5-----5-----5-----5--|
A|7---6-7---6-7---6-7----|
E|-----------------------|

G|---------------------------------------|
D|---------------------------------------|
A|---------------------------------------|
E|13-12-12-12-12-12--14-14-14--16-16-16--|

G|-------------------|
D|-------------------|
A|-------------------|
E|16~~--16-14-12-10--|
comments
We did not receive enough feedback on this tab! Please rate:
print report bad tab
1 2 3 4 5
I want to post or [tab]
guest
You may want to rate the tab now too:
select rating
Please do not post tabs as comments. Select "correction" instead!