Oops, an error
Loading. Please wait.

If You Were There Beware Bass Tab

version 4
version 4

Interactive

1,752 views 12 this week
no commentswrite comment
1 2 3 4 5
excellent!
x 4
add to favorites
launch autoscroll
font size
0
reset
guitar tuner
Tab Pro tools
  • play this tab
  • loop segment
  • change instrument
  • show fretboard
  • metronome
Autoscroll
slow
fast
+/-
esc
set tempo
stop
Contributor
-------------------------------------------------------------------------------
                             IF YOU WERE THERE BEWARE - Arctic Monkeys
-------------------------------------------------------------------------------

Tabbed By : Kevin

Tuning: Standard

0:00
G|-------------------------------------------------|
D|---5-----5-----5-----5-----5-----5-----5-----5---|
A|-7---6-7---6-7---6-7---6-7---6-7---6-7---6-7---6-|
E|-------------------------------------------------|

G|---------------------------------------------------------------|
D|---5-----5-----5-----5---/12-10-10-10-10-10-/14-14-14-16-16-16-|x3
A|-7---6-7---6-7---6-7---6---------------------------------------|
E|---------------------------------------------------------------|

G|------------------------------------------------------------|
D|---5-------------5------------------------------------------|
A|-7---6-7-rest--7---6-7-rest---------------------------------|
E|----------------------------/10-8-8-8-8-8-12-12-12-14-14-14-|

G|---------------------------------------------------------------|
D|---5-----5-----5-----5---/12-10-10-10-10-10-/14-14-14-16-16-16-|
A|-7---6-7---6-7---6-7---6---------------------------------------|
E|---------------------------------------------------------------|

0:42
G|-------------------------------------------------------------|
D|-------------------------------------------------------------|x4
A|-/7--7--7-7\---/7--7--7-7\---3--3--3-3--3--3-3--3--3-3--3--3-|
E|-------------------------------------------------------------|

1:10 no bass

1:25
G|-----------------------------------------------------------|
D|-----------------------------------------------------------|
A|-/7--7-7-7-7\---/7--7-7-7-7\---3--3-3-3-3-3---3--3-3-3-3-3-|
E|-----------------------------------------------------------|

G|--------------------------------------------------------------|
D|---------------------------------------------------/10-10-9-9-|
A|-/7--7-7-7-7\---/7--7-7-7-7\---3--3-3-3-3-3---3--3------------|
E|--------------------------------------------------------------|

G|-----------------------------------------------------------|
D|-----------------------------------------------------------|x2
A|-/7--7-7-7-7\---/7--7-7-7-7\---3--3-3-3-3-3---3--3-3-3-3-3-|
E|-----------------------------------------------------------|

2:07
G|-------------------------------------------------------------------------|
D|--------------------------------------------------------------/10-10-9-9-|
A|-/7~~------------3~------3~------/7~~------------3~------3~--------------|
E|-------------------------------------------------------------------------|

2:21
G|-----------------------------------------------------------|
D|-----------------------------------------------------------|x2
A|-/7--7-7-7-7\---/7--7-7-7-7\---3--3-3-3-3-3---3--3-3-3-3-3-|
E|-----------------------------------------------------------|

2:35
G|---------------------------------------------------------------|
D|---------------------------------------------------------------|x2
A|-----------------3--3-3--2--2-2----------2--2-2----------2--2--|
E|-5--5-5--3--3-3------------------0--0-0----------0--0-0--------|

G|----------------------------------------------------------------|
D|----------------------------------------------------------------|
A|-----------------3--3-3--2--2-2--3--3-3----------2--2-2--5--5-5-|
E|-5--5-5--3--3-3--------------------------3--3-3-----------------|

G|-------------------------------------------------------------------|
D|-------------------------------------------------------------------|
A|-3--3-3----------2--2-2----------3--3-3----------2--2-2--2--2------|
E|---------3--3-3----------2--2-2----------3--3-3---------------0~~~-|

3:04 no bass

3:56
G|------------|---------------------------------------------------------------|
D|------------|---5-----5-----5-----5---/12-10-10-10-10-10-/14-14-14-16-16-16-|x2
A|-7-9--9--9--|-7---6-7---6-7---6-7---6---------------------------------------|
E|------------|---------------------------------------------------------------|

G|------------------------------------------------------------|
D|---5-------------5------------------------------------------|
A|-7---6-7-rest--7---6-7-rest---------------------------------|
E|----------------------------/10-8-8-8-8-8-12-12-12-14-14-14-|

G|---------------------------------------------------------------|
D|---5-----5-----5-----5---/12-10-10-10-10-10-/14-14-14-16-16-16-|
A|-7---6-7---6-7---6-7---6---------------------------------------|
E|---------------------------------------------------------------|

G|----------------------|
D|----------------------|
A|-10~~~------10-9-8-7\-|
E|----------------------|

| /  slide up
| \  slide down
| h  hammer-on
| p  pull-off
| ~  vibrato
| +  harmonic
| x  Mute note
===============================================================================
comments
print report bad tab
I want to post or [tab]
guest
You may want to rate the tab now too:
select rating
Please do not post tabs as comments. Select "correction" instead!