Oops, an error
Loading. Please wait.

If You Were There Beware Bass Tab

version 5
version 5

Interactive

1,552 views 3 this week
no commentswrite comment
1 2 3 4 5
please rate
add to favorites
launch autoscroll
font size
0
reset
guitar tuner
Autoscroll
slow
fast
+/-
esc
set tempo
stop
Help us to improve Ultimate-Guitar.com Take our survey!
×
Contributor
Pedro Zappa 2,709
Artist: Arctic Monkeys

Album: Favourite Worst Nightmare



All tabs by Pedro Zappa
-----------------------------------------------------------------------------
-----------------------------------------------------------------------------


9. If You Were There, Beware


Intro

G||----------------------|----------------------||  x3
D||-----5----------5-----|-----5----------5-----||
A||-7-------6--7-------6-|-7-------6--7-------6-||
E||----------------------|----------------------||
    i     i    i    i      i     i    i    i  
G||----------------------------|----------------------------||
D||-12---10---10--10---10---10-|-14---14---14--16---16---16-||
A||----------------------------|----------------------------||
E||----------------------------|----------------------------||
    i       i     i       i      i       i     i       i

G||----------------------|----------------------|
D||-----5----------5-----|-----5----------5-----|
A||-7-------6--7-------6-|-7-------6--7-------6-|
E||----------------------|----------------------|
    i     i    i    i      i     i    i    i  
G||----------------------------|----------------------------||  x2
D||-12---10---10--10---10---10-|-14---14---14--16---16---16-||
A||----------------------------|----------------------------||
E||----------------------------|----------------------------||
    i       i     i       i      i       i     i       i

G||----------------------|| x2
D||-----5----------------||
A||-7-------6--7---------||
E||----------------------||
    i     i    i    i  
G||----------------------|----------------------|
D||----------------------|----------------------|
A||-5---3---3--3---3---3-|-7---7---7--9---9---9-|
E||----------------------|----------------------|
    i     i    i    i      i     i    i    i
G||----------------------|----------------------|
D||-----5----------5-----|-----5----------5-----|
A||-7-------6--7-------6-|-7-------6--7-------6-|
E||----------------------|----------------------|
    i     i    i    i      i     i    i    i  
G||----------------------------|----------------------------|
D||-12---10---10--10---10---10-|-14---14---14--16---16---16-|
A||----------------------------|----------------------------|
E||----------------------------|----------------------------|
    i       i     i       i      i       i     i       i

Verse 1

G||-----------------------|----------------------|
D||-----------------------|----------------------|
A||-7---7---7--7\-----(2)/|-7---7---7--7\--------|
E||-----------------------|----------------------|
    i     i    i    i       i     i    i    i
G||----------------------|----------------------||  x4
D||----------------------|----------------------||
A||-3---3---3--3---3---3-|-3---3---3--3---3---3-||
E||----------------------|----------------------||
    i     i    i    i      i     i    i    i

(wait)

G||--------------------|--------------------|
D||--------------------|--------------------|
A||--/7----7--7-7--7\--|--/7----7--7-7--7\--|
E||--------------------|--------------------|
    i    i    i    i     i    i    i    i
G||--------------------|--------------------||
D||--------------------|--------------------||
A||--/3----3--3-3--3---|--/3----3--3-3--3---||
E||--------------------|--------------------||
    i    i    i    i     i    i    i    i
G||--------------------|--------------------|
D||--------------------|--------------------|
A||--/7----7--7-7--7\--|--/7----7--7-7--7\--|
E||--------------------|--------------------|
    i    i    i    i     i    i    i    i
G||--------------------|-----------------------||
D||--------------------|-----------------------||
A||--/3----3--3-3--3---|--/3----3-/15-15--14---||
E||--------------------|-----------------------||
    i    i    i    i     i    i    i    i

G||--------------------|--------------------|
D||--------------------|--------------------|
A||--/7----7--7-7--7\--|--/7----7--7-7--7\--|
E||--------------------|--------------------|
    i    i    i    i     i    i    i    i
G||--------------------|--------------------||  x3
D||--------------------|--------------------||
A||--/3----3--3-3--3---|--/3----3--3-3--3---||
E||--------------------|--------------------||
    i    i    i    i     i    i    i    i
G||--------------------|--------------------|
D||--------------------|--------------------|
A||--/7----7--7-7--7\--|--/7----7--7-7--7\--|
E||--------------------|--------------------|
    i    i    i    i     i    i    i    i
G||--------------------|--------------------||
D||--------------------|--------------------||
A||--/3----3--3-3--3---|--/3----3--3-3--3-3-||
E||--------------------|--------------------||
    i    i    i    i     i    i    i    i

Chorus

G||--------------------|--------------------|
D||--------------------|--------------------|
A||-7------------------|--------------------|
E||--------------------|--------------------|
    i    i    i    i     i    i    i    i
G||--------------------|--------------------|
D||--------------------|--------------------|
A||-3------------------|-3------------------|
E||--------------------|--------------------|
    i    i    i    i     i    i    i    i
G||--------------------|--------------------|
D||--------------------|--------------------|
A||-7------------------|--------------------|
E||--------------------|--------------------|
    i    i    i    i     i    i    i    i
G||--------------------|-----------------------|
D||--------------------|-----------------------|
A||-3------------------|----------/15-15--14---|
E||--------------------|-----------------------|
    i    i    i    i     i    i    i      i

G||--------------------|--------------------|
D||--------------------|--------------------|
A||--/7----7--7-7--7\--|--/7----7--7-7--7\--|
E||--------------------|--------------------|
    i    i    i    i     i    i    i    i
G||--------------------|--------------------||  x2
D||--------------------|--------------------||
A||--/3----3--3-3--3---|--/3----3--3-3--3---||
E||--------------------|--------------------||
    i    i    i    i     i    i    i    i

Riff

G||--------------------|--------------------|
D||--------------------|--------------------|
A||--------------------|----3---3--3--2---2-|
E||----5---5--5--3---3-|-3------------------|
    i    i    i    i     i    i    i    i
G||--------------------|--------------------||  x2
D||--------------------|--------------------||
A||-2------------2---2-|-2------------2---2-||
E||----0---0--0--------|----0---0--0--------||
    i    i    i    i     i    i    i    i

G||--------------------|--------------------|
D||--------------------|--------------------|
A||--------------------|----3---3--3--2---2-|
E||----5---5--5--3---3-|-3------------------|
    i    i    i    i     i    i    i    i
G||--------------------|--------------------|
D||--------------------|--------------------|
A||-2--3---3--3--------|----2---2--2--5---5-|
E||--------------3---3-|-3------------------|
    i    i    i    i     i    i    i    i
G||--------------------|--------------------|
D||--------------------|--------------------|
A||-5--3---3--3--------|----2---2--2--------|
E||--------------3---3-|-3------------2---2-|
    i    i    i    i     i    i    i    i
G||--------------------|--------------------|
D||--------------------|--------------------|
A||----3---3--3--------|----2---2--2--2---2-|
E||-2------------3---3-|-3------------------|
    i    i    i    i     i    i    i    i
G||--------------------|--------------------|
D||--------------------|--------------------|
A||--------------------|--------------------|
E||-0------------------|--------------------|
    i    i    i    i     i    i    i    i

(wait)

G||----------------------|----------------------|
D||-----5----------5-----|-----5----------5-----|
A||-7-------6--7-------6-|-7-------6--7-------6-|
E||----------------------|----------------------|
    i     i    i    i      i     i    i    i  
G||----------------------------|----------------------------||  x2
D||-12---10---10--10---10---10-|-14---14---14--16---16---16-||
A||----------------------------|----------------------------||
E||----------------------------|----------------------------||
    i       i     i       i      i       i     i       i

G||----------------------|| x2
D||-----5----------------||
A||-7-------6--7---------||
E||----------------------||
    i     i    i    i  
G||----------------------|----------------------|
D||----------------------|----------------------|
A||-5---3---3--3---3---3-|-7---7---7--9---9---9-|
E||----------------------|----------------------|
    i     i    i    i      i     i    i    i
G||----------------------|----------------------|
D||-----5----------5-----|-----5----------5-----|
A||-7-------6--7-------6-|-7-------6--7-------6-|
E||----------------------|----------------------|
    i     i    i    i      i     i    i    i  
G||----------------------------|----------------------------|
D||-12---10---10--10---10---10-|-14---14---14--16---16---16-|
A||----------------------------|----------------------------|
E||----------------------------|----------------------------|
    i       i     i       i      i       i     i       i
G||--------------------|-----------------------|
D||-17-----------------|-----------17--16--15--|
A||--------------------|-----------------------|
E||--------------------|-----------------------|
    i    i    i    i     i    i    i     i
G||--------------------||
D||-14------------------||
A||--------------------||
E||--------------------||
    i    i    i    i 


Tab by Pedro Zappa
-----------------------------------------------------------------------------
-----------------------------------------------------------------------------
Suggest correction new What's this?
You can suggest a correction to this tab. Community and Mods will review your correction and vote to approve or reject it.
comments
We did not receive enough feedback on this tab! Please rate:
print report bad tab
1 2 3 4 5
guest
You may want to rate the tab now too:
select rating
Please do not post tabs as comments. Select "correction" instead!