Oops, an error
Loading. Please wait.

Joining The Dots Bass Tab

version 1
version 1

Whole song

1,856 views 1 this week
no commentswrite comment
1 2 3 4 5
2 more votes to show rating
add to favorites
launch autoscroll
font size
0
reset
guitar tuner
Autoscroll
slow
fast
+/-
esc
set tempo
stop
Help us to improve Ultimate-Guitar.com Take our survey!
×
Author
Difficulty
intermediate
G|------------------------------|
D|-----5-7-9-10-9------5--------|
A|7-7-------------7-7-----3-5-3-|x2
E|------------------------------|

Verse:
G|----------------------------------------------------------|
D|-----5-------------------------------------------5--------|
A|7-7-----3-5-3-7-7--7--3-5-3--7-7--7--3-5-3--7-7-----3-5-3-|
E|----------------------------------------------------------|

G|-------------|  |--------------|
D|-------------|  |-----5--------|
A|7-7--7--5--3-|x3|7-7-----3-5-3-|
E|-------------|  |--------------|

G|--------------|  |------------------------------|
D|--------------|  |----------9-10-------5--------|
A|7-7--7--5--3--|x2|7-7--9-10-------7-7-----3-5-3-|
E|--------------|  |------------------------------|

Pre-chorus:
G|------------------------------------------------------------------------------|
D|---------------------------------5--------------------------------------------|
A|5-5--5-5-7-5--3-3--3-3-5-3--7-7-----3-5------------5-5--5-5-7-5--3-3--3-3-5-3-|
E|----------------------------------------3-3--3--5-----------------------------|

Chorus:
G|----------------------------|
D|----------------------------|x2
A|---765-10-12-10-5-765-3-----|
E|0-0---------------------5-3-|

Post chorus:
G|------------------------------|
D|-----5-7-9-10-9------5--------|
A|7-7-------------7-7-----3-5-3-|x2
E|------------------------------|

Verse:
G|-----------------------------------------------------------|
D|-----5-----------------------------4-5-9-10-------5--------|
A|7-7-----3-5-3-7-7--7--3-5-3--7-7-------------7-7-----3-5-3-|x2
E|-----------------------------------------------------------|

G|----------------------------|
D|-------------------5--------|
A|7-7--7--5--3--7-7-----3-5-3-|x2
E|----------------------------|

G|--------------|  |---------------------------------|
D|--------------|  |----------9-10------------9-10-9-|
A|7-7--7--5--3--|x2|7-7--9-10-------7-7--9-10--------|
E|--------------|  |---------------------------------|

Pre-chorus:
G|-----------------------------------------------------------------------|
D|---------------------------------5-------------------------------------|
A|5-5--5-5-7-5--3-3--3-3-5-3--7-7-----3-5------------5-5--5-5-7-5--3-----|
E|----------------------------------------3-3--3--5----------------------|

Chorus:
G|----------------------------|
D|----------------------------|x2
A|---765-10-12-10-5-765-3-----|
E|0-0---------------------5-3-|

Bridge:
G|----------------------------------------------|
D|----------------------------------------------|
A|3-3--5-3-3-3-3--3--5-7----------------------2-|x3
E|-----------------------0-0--1-0-1-3-3--3--5---|

G|------------------------------------------------------------|
D|------------------------------------------------------------|
A|3-3--3--3--3-3-3--3--3--3-7-7--7--7--7--10-10-10-10-7-7-7-7-|
E|------------------------------------------------------------|

Outro:
G|----------------------------|
D|----------------------------|x2
A|---765-10-12-10-5-765-3-----|
E|0-0---------------------5-3-|

G|------------------------------|
D|-----5-7-9-10-9------5--------|
A|7-7-------------7-7-----3-5-3-|x2
E|------------------------------|

G|----|
D|----|
A|----|
E|0~--|
Suggest correction
Give kudos to tab author, rate the tab!
1 2 3 4 5
comments
print report bad tab
guest
You may want to rate the tab now too:
select rating
Wanna post a correction for this tab? Suggest correction