Oops, an error
Loading. Please wait.

Knock A Door Run Bass Tab

2,027 views 3 this week
2 commentsread comments
1 2 3 4 5
x 3
add to favorites
launch autoscroll
font size
0
reset
guitar tuner
Autoscroll
slow
fast
+/-
esc
set tempo
stop
Help us to improve Ultimate-Guitar.com Take our survey!
×
Author
Band - Arctic Monkeys
Song - Knock A Door Run

Tuning EADG

Verse
G|-----------------|    |-----------------|
D|---4-2-----------|    |-----------------|
A|--------4-3--2-0-| x3 |-----------------| x1
E|-2---------------|    |-0-0-0-0-1-1-1-1-|
Come in on the second time with the drums.

Do Verse x3

Pre Chorus
G|----------------------------------|
D|----------------------------------|
A|----------------------------------|
E|-22222222222222222222222200000000-|
come after "what ye all do to keep us entertained" the first time.

Chorus

G|----------------------|
D|----------44----------|
A|-----2-2-----44-22-00-| x2
E|-2-2------------------|


G|----------------------------------------------|
D|----------------------------------------------|
A|------2222-0000-4444-------2222--0-0-0--4-4-4-|
E|-2222-----------------2222--------------------|

Then verse x3

Pre Chorus

Chorus

G|----|
D|----|
A|----|
E|-2~~|


Bridge
                              
G|--------------------------------------------|
D|-----------------------------4-2------------|
A|---------------------------------4-3--2-0---|
E|-222222222222222222222222222--------------2-|
 this riff then gets faster and faster

G|--------------------------------|    G|----|
D|--------------------------------|    D|----|
A|--------------------------------| X4 A|----|
E|-2222--2222--2222--0000--1111---|    E|-2~~|

Tabbed by eddienolan89,this is my first tab so if there is anything wrong with this tab 
leave a comment!
Suggest correction
Give kudos to tab author, rate the tab!
1 2 3 4 5
comments
print report bad tab
2 comments total.
0 reply
IndieJoe 1,997 Mar 14, 2009 02:22 PM

Great song, cheers for putting the tab up :D

but i think it gets higher on the 2nd outro of the verses, like

G|----------------------------------
D|----------------------------------
A|----------------------------------
E|22222222222222220000000044444444--

Just a suggestion
i saw it was your 1st tab so i've still rated it 5* :)

0 reply
IndieJoe 1,997 Aug 19, 2009 10:57 AM

btw in the bridge/solo
the filler in it goes;
G|----------------
D|4-3-2-1---------
A|--------4-2-3-1-
E|----------------

guest
You may want to rate the tab now too:
select rating
Wanna post a correction for this tab? Suggest correction