Oops, an error
Loading. Please wait.

Leave Before The Lights Come On Bass Tab

version 1
version 1

Whole song

Interactive

18,144 views 9 this week
no commentswrite comment
1 2 3 4 5
x 5
add to favorites
launch autoscroll
font size
0
reset
guitar tuner
Autoscroll
slow
fast
+/-
esc
set tempo
stop
Help us to improve Ultimate-Guitar.com Take our survey!
×
Difficulty
novice
Arctic monkeys
Leave before the lights come on
Tabber: Kjelle Vergauwe
Comment: Fixed outro and adjusted intro,verse,chorus, 100% Correct
___________________________________________________________________________

intro
G-----------------------------------------------------------------------------------|
D-----------------------------------------------------------------------------------|
A---------------------------7-7-777—7-7-777---5-5-555---5-5-555--5-5-555---5-5-555--|          x3
E—8-8-888—8-8-888-------------------------------------------------------------------|


Verse 1
G-------------------------------------------------------------------|
D-------------------------------------------------------------------|   2x
A---777--777----777---777--555---555--555-555-----------------------|
E-------------------------------------------------------------------|

G--------------------------------------------------------------------------------|
D--------------------------------------------------------------------------------|
A---77777--------55555555--------77777-----55555555555555------------------------|
E--------------------------------------------------------------------------------|

(1:12)
Verse2
G---------------------------------------------------------------------------------|
D--------------------------9------99776655----7---------7------------7---------7--|
A---10---------10------7---777-------------5---555--5---555----5---555--5---555---|
E--8---888---8---888--------------------------------------------------------------|

G----------------------------------------------------------------------------------------|
D--------------------------9------------9------------7---------7------------7---------7--|      x2
A---10---------10------7---777----7---777----5---555--5---555----5---555--5---555--------|
E--8---888---8---888---------------------------------------------------------------------|

Chorus
(1:52)
G------------------------------------------------------------|
D-----9-------------9-------------7-----------7--------------|      x2
A--7---7777----7---7777----5---5555--5---5555----------------|
E------------------------------------------------------------|

Post Chorus
(2:06)
G---------------------------------------------------------|
D-----9-----------------7---------------9-----------7-----|
A--7---7------------5---5557-------7---7------5---5-------|
E---------------------------------------------------------|

(2:21)

G-------------------------------------------------------------------------------|
D-------------------------------------------------------------------------------|
A-----------------------------------------5-5-5-5----------5-5-5-5-8-8-8-8------|
E--8-8-8-8-8-8-8-8-5-5-5-5-5-5-5-5----------5-5-5-5-----------------------------|

G-----------------------------------------------------------------------------------|
D-----------------------------------------------------------------------------------|
A-----------------------------------------5-5-5-5----------5-5-5-5-888888888888888--|
E--8-8-8-8-8-8-8-8-5-5-5-5-5-5-5-5----------5-5-5-5---------------------------------|

REST

(3:12)
G---------------------------------------------|
D---------------------------------------------|
A---------------------------------------------|
E--12-12-12-12-12-12-12 (no slide)        (12-|ves)

OUTRO
G------------------------------------------------------------------------------|
D------------------------------------------------------------------------------|
A------------------------------------------------------------------------------|
E---5555---5555---5555---55555---12121212--12121212--12121212--12121212-  (12--|ves)

G------------------------------------------------------------------------|
D------------------------------------------------------------------------|
A----------------------------777777777777-7-10-7-10-7-10-7-10------------|
E--55555555555555555-----------------------------------------------------|

G--------------------------------------------------------|
D--------------------------------------------------------|
A--------------------------------------------------------|
E--555555555555555---333333333333333333------------------|

G-------------------------------------------------------|
D-------------------------------------------------------|
A--7777777777777777--77777777777777777------------------|
E-------------------------------------------------------|


G-------------------------------------------------------|
D-------------------------------------------------------|
A-------------------------------------------------------|
E-5(~)--------------------------------------------------|
Suggest correction
comments
print report bad tab
guest
You may want to rate the tab now too:
select rating
Wanna post a correction for this tab? Suggest correction