Oops, an error
Loading. Please wait.

Leave Before The Lights Come On Tab

version 1
version 1

Whole song

Interactive

38,227 views 27 this week
4 commentsread comments
1 2 3 4 5
x 9
add to favorites
launch autoscroll
font size
0
reset
how to read this tab
guitar tuner
backing track
0:00
0:00
×
Best way to learn
"Leave Before The Lights Come On"
Autoscroll
slow
fast
+/-
esc
set tempo
stop
[Intro] (Guitar 1)
E|00000000-5-3-0-3-0--------3-0---0----------3-0---0--|
B|------------------------------3---3------------3---3|
G|----------------------222--------------222----------|
D|----------------------------------------------------|
A|----------------------------------------------------|
E|----------------------------------------------------|

(Guitar 2)
C   Em   Dm   Dm

[Verse]
C                   Em
Well this is a good idea
                        Dm
You wouldn’t do it if it wasn’t
You wouldn’t do it if it wasn’t one

[Pre-Chorus]
Em   Dm

[Chorus]
Em   Dm

[Verse 2] (Guitar 1)
E|---------|
B|---------|
G|---------| (x4)
D|--5------|
A|3---3-3-3|
E|---------|

E|------------------------------------------------|----------|
B|------------------------------------------------|----------|
G|--------------------------4-----------4---------|----------| (x4)
D|--2-5---2-----2-5-------2---5-------2---5-------|----5-----|
A|3-----------3-----------------------------------|5-7----7--|
E|------------------------------------------------|----------|

[Verse 2] 
(Guitar 2)
C   Em   Dm   Dm

[Pre-Chorus]
Em   Dm

[Chorus]
Em   Dm

[Bridge]
C   Am   Dm   Am   Dm   F

[Outro] (Guitar 1)
E|----------------------------------------------------------------|
B|----------------------------------------------------------------|
G|----------------------------------------------------------------|
D|7777777777777777777777777777777755555555------------------------|
A|----------------------------------------777777775555555533333333|
E|----------------------------------------------------------------|

E|----------------------------------------------------------------|
B|----------------------------------------------------------------|
G|----------------------------------------------------------------|
D|----------------5555777755557777--------------------------------|
A|5555777755557777----------------77777777555555553333333377777777|
E|----------------------------------------------------------------|

E|00000000-5-3-0-3-0--------3-0---0----------3-0---0--------------------|
B|------------------------------3---3------------3---3------------------|
G|----------------------222--------------222----------------------------|
D|---------------------------------------------------------5---5---5-7-5|
A|-------------------------------------------------------7---7---7------|
E|----------------------------------------------------------------------|

E|00000000-5-3-0-3-0-------0-0-3-0-0------00-3-0--------------------------|
B|---------------------/55-------------/55-------5--3-5--3-5--3-5--3-5-5-3|
G|-------------------22--------------22-----------------------------------|
D|------------------------------------------------------------------------|
A|------------------------------------------------------------------------|
E|------------------------------------------------------------------------|

(Guitar 2)
Am   G   F   E (x4)

[Ending] 
Am
E|0---|
B|1---|
G|2---|
D|2---|
A|0---|
E|----|



************************************

| /  Slide up

************************************
Suggest correction
comments
print report bad tab
4 comments total. Showing first comments.
0 reply
typhoo 21 Aug 11, 2006 10:54 AM

this should be chords since most of the song involves em

0 reply
Briscoe06 10 Sep 08, 2006 10:33 PM

THESE MIGHT BE THE CHORDS

[x 5 7 5 6 5] Dm

[x 10 12 12 12 0] Em

ONE OF THESE IS C [x 0 5 5 5 8] [x 10 12 12 13 0] [x 3 5 3 5 3 0]


[1 3 3 2 1 0] Am or this [x 0 2 2 1 0]

0 reply
Briscoe06 10 Sep 08, 2006 10:34 PM

oh abd this is the F that they play [14 16 16 15 14 14]

guest
You may want to rate the tab now too:
select rating
Wanna post a correction for this tab? Suggest correction