Oops, an error
Loading. Please wait.

Leave Before The Lights Come On Bass Tab

version 2
version 2

Whole song

Interactive

2,013 views 3 this week
no commentswrite comment
1 2 3 4 5
please rate
add to favorites
launch autoscroll
font size
0
reset
guitar tuner
Autoscroll
slow
fast
+/-
esc
set tempo
stop
Help us to improve Ultimate-Guitar.com Take our survey!
×
Author
Difficulty
novice
G|-----------------------------------------|
D|-----------------------------9977--------|
A|3-3-333--3-3-333--/6-6-666--6----101099--|
E|-----------------------------------------|

G|---------|
D|---------|
A|6-6-666--|x4
E|---------|

Verse:
G|-------------------------------------------------------------------------|
D|-------------------------------------------------------------------------|
A|3-3-333--3-3-333--/6-6-666--6-6-666--5-5-555--5-5-555--5-5-555--5-5-555--|x2
E|-------------------------------------------------------------------------|

Chorus:
G|----------------------------------------------------------|
D|----------------------------------------------------------|
A|5-5--55-5--55-5-5-5-5-5-5-5--3-3--33-3--33-3-3-3-3-3-3-3--|x2
E|----------------------------------------------------------|

Breakdown:
G|------------------------------------------|
D|------------------------------------------|
A|5-5-5-5-5--------------3-3-3-3-3-3-3-3-3--|
E|------------------------------------------|

G|--------------------------------------------------------|
D|--------------------------------------------------------|
A|5-5-5-5-5--------------3-3-3-3-3-3-3-3-3-3-3-3-3-3-3-3--|
E|--------------------------------------------------------|

Verse:
G|--------------------------------------|
D|----5~-------5~-----7-5~--9977--------|
A|3-5---5--3-5---5--7------7----101099--|
E|--------------------------------------|

G|--------|
D|--5-----|
A|5---5~--|x6
E|--------|

G|--------|
D|--7-----|
A|7---7~--|x2
E|--------|

G|--------|
D|--5-----|
A|5---5~--|x4 (slide down to 3 on the last note)
E|--------|

G|--------|
D|--5-----|
A|5---5~--|x2
E|--------|

G|--------|
D|--7-----|
A|7---7~--|x2
E|--------|

G|--------|
D|--5-----|
A|5---5~--|x4 (slide down to 3 on the last note)
E|--------|

Chorus:
G|--------------------------------------------------------|
D|--5-------------5-------------3-------------3-----------|
A|5---5~-5-5-5--5---5~-5-5-5--3---3~-3-3-3--3---3~-3-3-3--|x2
E|--------------------------------------------------------|

Breakdown:
G|-----------------------------|
D|--5------------3-------------|
A|5---5--------3---3~-3-3-3-3--|
E|-----------------------------|

G|----------------------|
D|--5------------3------|
A|5---5--------3---3----|
E|----------------------|

Bridge:
G|-------------------------------------------------------------------|
D|-------------------------------------------------------------------|
A|5-5-5-5-5-5-5-5\3-3-3-3-3-3-3-3/7-7-7-7\3-3-3-3/7-7-7-7-9-9-10-10--|
E|-------------------------------------------------------------------|

G|---------------------------------------------------------|
D|---------------------------------------------------------|
A|5-5-5-5-5-5-5-5\3-3-3-3-3-3-3-3/7-7-7-7\3-3-3-3/7-7-7-7--|
E|---------------------------------------------------------|

G|---------------------------------------------------|
D|---------------------------------------------------|
A|9999999999999999/15151515151515151515151515151515--|
E|---------------------------------------------------|

*REST*

Outro:
G|------------------------------------------------------------------|
D|------------------------------------------------------------------|
A|7-7-7---7-7-7---7-7-7-7-7-7-7-7--5-5-5---5-5-5---5-5-5-5-5-5-5-5--|
E|------------------------------------------------------------------|

G|----------------------------------------------------------------|
D|--------------------------------------------------5---5---5-7\--|
A|3-3-3---3-3-3---3-3-3-3-3-3-3-3--0-0-0--0-0-0---5---5---5-------|
E|----------------------------------------------------------------|

G|------------------------------------------------------------------|
D|------------------------------------------------------------------|
A|7-7-7---7-7-7---7-7-7-7-7-7-7-7--5-5-5---5-5-5---5-5-5-5-5-5-5-5--|
E|------------------------------------------------------------------|

G|-----------------------------------------------------------------|
D|-----------------------------------------------------------------|
A|3-3-3---3-3-3---3-3-3-3-3-3-3-3--0-0-0--0-0-0---0-0-0-0-0-0-0-0--|
E|-----------------------------------------------------------------|

G|----|
D|----|
A|----|
E|5\--|
Suggest correction
Give kudos to tab author, rate the tab!
1 2 3 4 5
comments
print report bad tab
guest
You may want to rate the tab now too:
select rating
Please do not post tabs as comments. Select "correction" instead!