Oops, an error
Loading. Please wait.

Leave Before The Lights Come On Tab

version 2
version 2

Whole song

Interactive

96,546 views 87 this week
4 commentsread comments
1 2 3 4 5
excellent!
x 87
add to favorites
launch autoscroll
font size
0
reset
how to read this tab
guitar tuner
Tab Pro tools
  • play this tab
  • loop segment
  • change instrument
  • show fretboard
  • metronome
×
Best way to learn
"Leave Before The Lights Come On"
Autoscroll
slow
fast
+/-
esc
set tempo
stop
Contributor
I worked all these out by ear so I doubt they are the acctual riff, but good enough to 
along wif! x_x

.::INTRO::.
E|-----------------------------------------------------|
B|------------10-8---8-------8--------------8----------|
G|--9-9-9-9-9------9---9-------9-7-9-7--------9-7-9-7--|
D|-----------------------7-7------------7-7------------|
A|-----------------------------------------------------|
E|-----------------------------------------------------|

.::CHORUS::.

E|-----------------------------------------------------|
B|------------10-8---8-------8--------------8----------|
G|--9-9-9-9-9------9---9-------9-7-9-7--------9-7-9-7--|
D|-----------------------7-7------------7-7------------|
A|-----------------------------------------------------|
E|-----------------------------------------------------|

 .::BRIDGE::.
E|------------------------------------------------|
B|------------------------------------------------|
G|------------------------------------------------|
D|----5---------5--------5--------5--------5------|
A|--3---3-3-3-3---3-3-3-3--3-3-3-3--3-3-3-3--3----|
E|------------------------------------------------|


|-----------------------------------------------------------------|
|-----------------------------------------------------------------|
|-------------------4-----4---------------------------------------|
|----2--2---2--2------5-----5------2-5-2---2-5-2---2-5-2---2-5-2--|
|--3--5---3--5----7-----7-------5--------5-------5-------5--------|   X3
|-----------------------------------------------------------------|

.::CHORUS TWO::.
|-----------------------------------------------------------|
|-----------------------------------------------------------|
|-----------------------------------------------------------|
|------------------7-5---5----------5-------------5---------|
|--7-7-7-7-7-7-7-7-----7---7----------7-5-7-5-------7-5-7-5-|
|----------------------------5---5-5-----------5-5----------|


.::SOLO::.

(These Are Just he Fret Numbers For Where The First Part Of The Solo Are Played, Listen 
How Many Times Each Note Is Played)
E|------------------------------------------------------------|
B|------------------------------------------------------------|
G|----------------------------------------------------------9-|
D|------------------------------------------------------------|
A|--0--12--10--7--5--3--5--7--5--7--10--12--10--12--7--5--3---|
E|------------------------------------------------------------|

E|------------------------------------------------------------|
B|------------------10-8---8-------8--------------8-----------|
G|--9-9-9-9-9-9-9-9------9---9b-------9-7-9-7--------9-7-9-7--|
D|------------------------------7-7------------7-7------------|
A|------------------------------------------------------------|
E|------------------------------------------------------------|

E|-------------------------------------------------------------------------|
B|----------------------------------10-8---8---8-------8-------8-------8---|
G|--9-9-9-9-9-9-9-9-9-9-9-9-9-9-9-9------9-------9-7-9---9-9-----9-7-9---9-|
D|-------------------------------------------7---------------7-------------|
A|-------------------------------------------------------------------------|
E|-------------------------------------------------------------------------|

|-------------------------------|
|-------------------------------|
|--9-9-7-9--9-7-9--9-7-9-7------|
|-------------------------------|
|-------------------------------|
|-------------------------------|


Plz Rate if You Like Cheers x_x
comments
print report bad tab
4 comments total. Showing first comments.
+4 reply
jason_smiths wrote on September 5 2006, 09:57 pm

.::verse::.

"well this is a good idea""he wouldnt..."
E|--------------------------7-7-7-7-7-7-7-7------------|
B|--5-5-5-5-5-5-5-5---------8-8-8-8-8-8-8-8------------|
G|--5-5-5-5-5-5-5-5---------9-9-9-9-9-9-9-9------------|
D|--5-5-5-5-5-5-5-5---------9-9-9-9-9-9-9-9------------|
A|--3-3-3-3-3-3-3-3---------7-7-7-7-7-7-7-7------------|
E|-----------------------------------------------------|
"wasn't, he wouldnt do it if it wasnt one"
E|--5--5--5--5--5--5--5--5--5--5--5--5--5--5--5--5---|
B|--6--6--6--6--6--6--6--6--6--6--6--6--6--6--6--6---|
G|--7--7--7--7--7--7--7--7--7--7--7--7--7--7--7--7---|
D|--7--7--7--7--7--7--7--7--7--7--7--7--7--7--7--7---|
A|--5--5--5--5--5--5--5--5--5--5--5--5--5--5--5--5---|
E|---------------------------------------------------|

.::bridge::.

"they woke up together not quite realising how"

E|--7--7--7--7--7--7--7--7--7--7--5--5--5--5--5--5----------|
B|--8--8--8--8--8--8--8--10-7--8--6--6--6--6--6--6----------|
G|--9--9--9--9--9--9--9--9--9--9--7--7--7--7--7--7----------|
D|--9--9--9--9--9--9--9--9--9--9--7--7--7--7--7--7----------|
A|--7--7--7--7--7--7--7--7--7--7--5--5--5--5--5--5----------|
E|----------------------------------------------------------|

same chords for the " well i spose thats the price u pay" bit part from the pause and the 'odd chords' out.


hope that helps u for the chords, i couldnt be arsed tabbin the lead coz urs is already right!



0 reply
DannyP wrote on October 21 2007, 06:00 pm

i was going to ask for the rhythm chords but looks like you've got it perfect jason. great lead tab too

+11 reply
Keast wrote on January 27 2008, 06:09 am

I think you made a mistake in Brigde, Column 2:


G|-------|
D|----2--|
A|--3--5-|


is actually:

G|-------|
D|----2-5|
A|--3----|

I want to post or [tab]
guest
You may want to rate the tab now too:
select rating
Please do not post tabs as comments. Select "correction" instead!