Oops, an error
Loading. Please wait.

Leave Before The Lights Come On Bass Tab

version 3
version 3

Whole song

Interactive

4,000 views 15 this week
no commentswrite comment
1 2 3 4 5
excellent!
x 9
add to favorites
launch autoscroll
font size
0
reset
guitar tuner
Tab Pro tools
  • play this tab
  • loop segment
  • change instrument
  • show fretboard
  • metronome
×
Best way to learn
"Leave Before The Lights Come On"
Autoscroll
slow
fast
+/-
esc
set tempo
stop
Difficulty
intermediate

INTRO

-----------------------------------------------------------------------------|
---------------------------9977----------------------------------------------|
-------------------7-7-777-----101077--5-5-555--5-5-555--5-5-555--5-5-555----|
-8-8-888--8-8-888------------------------------------------------------------|

---------------------------------------------------------------------|
---------------------------------------------------------------------|
-------------------7-7-777-7-777--5-5-555--5-5-555--5-5-555--5-5-555-|  x 2
-8-8-888--8-8-888----------------------------------------------------|


----------------------------------------------|
----------------------------------------------|
---777--777--777--777------555--555--555--555-|  x 2
----------------------------------------------|


-------------------------------------------------------------|
-------------------------------------------------------------|
---77777--------555555555--------77777-----5555555555555555--|
-------------------------------------------------------------|

---------------------------------------------------------------------------|
-----------------------9-----9977----------7--------7-------7---------7----|
----10-------10------7--7~7------101077--5--5~5---5--5~5---5--5~5---5--5~5-|
--8---8~8--8---8~8---------------------------------------------------------|

-----------------------------------------------------------------------|
-----------------------9-------9-------7--------7-------7---------7----|
----10-------10------7--7~7--7--7~7--5--5~5---5--5~5---5--5~5---5--5~5-| x 2
--8---8~8--8---8~8-----------------------------------------------------|

-----------------------------------------|
-----9---------9----------7--------7-----|  x2
---7--7~7----7--7~7-----5--5~5---5--5~5--|
-----------------------------------------|


-----------------------------------------|
-----9--------7-------------9------7-----|
---7--7-----5--5~5555-----7--7---5--5----|
-----------------------------------------|


-------------------------------------------------------------------------|
-------------------------------------------------------------------------|
-----------------------------------------------------------------8-8-8-8-|
-8-8-8-8-8-8-8-8-5-5-5-5-5-5-5-5/10-10-10-10\5-5-5-5/10-10-10-10---------|

-----------------------------------------------------------------|
-----------------------------------------------------------------|
-----------------------------------------------------------------|
-8-8-8-8-8-8-8-8-5-5-5-5-5-5-5-5/10-10-10-10\5-5-5-5/10-10-10-10-|

-------------------|
-------------------|
-88888888-88888888-|
-------------------|


LONG PAUSE


(bass then comes in at 3:12 with)

------------------------------------------------------------------------------|
------------------------------------------------------------------------------|
------------------------------------------------------------7-10-7-10-7-10-12-|
-5555555555555555-3333333333333333-111111111111111-00000000-------------------|

--------------------------------------------------------------------|
--------------------------------------------------------------------|
--------------------------------------------------------------------|
-5555555555555555-3333333333333333-111111111111111-0000000000000000-|

By Josh Sharp - SuziQ drummer


Intented for Andy Pandy - SuziQ Bassist   ;)
comments
print report bad tab
I want to post or [tab]
guest
You may want to rate the tab now too:
select rating
Please do not post tabs as comments. Select "correction" instead!