Oops, an error
Loading. Please wait.

Leave Before The Lights Come On Tab

version 3
version 3

Whole song

Interactive

46,576 views 102 this week
1 commentread comment
1 2 3 4 5
accurate
x 6
add to favorites
launch autoscroll
font size
0
reset
how to read this tab
guitar tuner
Autoscroll
slow
fast
+/-
esc
set tempo
stop
Help us to improve Ultimate-Guitar.com Take our survey!
×
Difficulty
novice
Band: Arctic Monkeys
Song: Leave Before The Lights Come On
Standard Tuning


Intro:
|-------------------------------------------------------------|
|------------------10-8---8-------8---------------8-----------|
|--9-9-9-9-9-9-9-9------9---9-------9-7-9-7----------9-7-9-7--|
|------------------------------7-7------------7-7-------------|
|-------------------------------------------------------------|
|-------------------------------------------------------------|

Verse 1 (Guitar Kicks In Half Way Through):
|------------------------------------|
|------------------------------------|
|-9-9-9-9-9-9-9-9-9-9-9-9-9-9-9-9----|
|------------------------------------|
|------------------------------------|
|------------------------------------|

Not the actual number of notes but you'll soon figure it out

Chorus Part 1:
|--------------------------------------------------------|
|---------------10-8---8-------8--------------8----------|
|--9-9--9--9-9-------9---9-------9-7-9-7--------9-7-9-7--|
|---------------------------7-7------------7-7-----------|
|--------------------------------------------------------|
|--------------------------------------------------------|

Chorus Part 2:
|-----------------------------------------------------|
|-----------------------------------------------------|
|-9-9-9-------7-7-7-7-7----(-7-7-7-7-7-7-7-)----------|
|-9-9-9-------7-7-7-7-7----(-7-7-7-7-7-7-7-)----------|
|-7-7-7-------5-5-5-5-5----(-5-5-5-5-5-5-5-)----------|
|-----------------------------------------------------|

Play (---) on 2nd time. (not exact number of strums)

Bridge Part 1: 
|------------------------------------------------|
|------------------------------------------------|
|------------------------------------------------|
|----5---------5--------5--------5--------5------|
|--3---3-3-3-3---3-3-3-3--3-3-3-3--3-3-3-3--3----|
|------------------------------------------------|

Bridge Part 2/Verse 2: (Play Throughout Verse 2)
|-----------------------------------------------------------------------|
|-----------------------------------------------------------------------|
|-------------------------4-------4-------------------------------------|
|----2-5-2----2-5-2-----5-------5-------2-5-2----2-5-2---2-5-2---2-5-2--|
|--3--------3---------7-------7-------5--------5-------5-------5--------|   
|-----------------------------------------------------------------------|

Chorus 2 Part 1:
|-----------------------------------------------------------|
|-----------------------------------------------------------|
|-----------------------------------------------------------|
|------------------7-5---5----------5-------------5---------|
|--7-7-7-7-7-7-7-7-----7---7----------7-5-7-5-------7-5-7-5-|
|----------------------------5---5-5-----------5-5----------|

Chorus 2 Part 2: (X2)
|---------------------------------|
|---------------------------------|
|-9-9-9-------7-7-7-7-7-----------|
|-9-9-9-------7-7-7-7-7-----------|
|-7-7-7-------5-5-5-5-5-----------|
|---------------------------------|

Solo:
|------------------------------------------------------------|
|------------------------------------------------------------|
|----------------------------------------------------------9-|
|------------------------------------------------------------|
|--0--12--10--7--5--3--5--7--5--7--10--12--10--12--7--5--3---|
|------------------------------------------------------------|

Tabbed By Tha_Story of www.purelyhiphop.com/forum

Contact: scott_abe_2k6@hotmail.co.uk
comments
print report bad tab
1 comment total.
+2 reply
coolbicks50 15 wrote on January 4 2014, 05:31 pm

I'm pretty sure theres a bit missing at the end of the intro, and i think the 7th fret is played 3 times on the D string before 8 on the B, shouldn't it be like this

|--------------------------------------------------------------------|
|------------------10-8---8----------8----------------8--------------|
|--9-9-9-9-9-9-9-9------9---9----------9-7-9-7----------9-7-9-7--7--5|
|------------------------------7-7-7------------7-7-7----------------|
|--------------------------------------------------------------------|
|--------------------------------------------------------------------|

I want to post or [tab]
guest
You may want to rate the tab now too:
select rating
Please do not post tabs as comments. Select "correction" instead!