Oops, an error
Loading. Please wait.

Leave Before The Lights Come On Tab

version 4
version 4

Whole song

Interactive

8,011 views 1 this week
no commentswrite comment
1 2 3 4 5
x 3
add to favorites
launch autoscroll
font size
0
reset
how to read this tab
guitar tuner
Autoscroll
slow
fast
+/-
esc
set tempo
stop
Help us to improve Ultimate-Guitar.com Take our survey!
×
Arctic Monkeys - Leave before the lights come on (TAB)
this is an actual tab that i actually tabbed on my own! hope its good!

Intro: Guitar 1
E------------------------------------------|
B-------------------10-8----8----8---------|
G--99999999999999999------9--9-----9-7-9-7-|
D----------------------------777-----------|
A------------------------------------------|
E------------------------------------------|

Guitar 2
E------------------------------------|
B------------------------------------|
G--5555555555-11/11/11/11-7777777777-|
D--5555555555-11/11/11/11-7777777777-|
A--3333333333-9999999999--5555555555-|
E------------------------------------|


Verse 1:
Guitar 1
E---------------------------------------|
B---------------------------------------|
G--9999999999999-777777777777777777-999-|
D---------------------------------------|
A---------------------------------------|
E---------------------------------------|

Guitar 2
E------------------------------------|
B------------------------------------|
G--5555555555-11/11/11/11-7777777777-|
D--5555555555-11/11/11/11-7777777777-|
A--3333333333-9999999999--5555555555-|
E------------------------------------|


Bridge: Guitar 1
E-------------------------------|
B--------10-8---8-----8---------|
G--999999-----9--9------9-7-9-7-|
D------------------777----------|
A-------------------------------|
E-------------------------------|

Guitar 2
E---------------|
B---------------|
G--11-11-11-999-|
D--11-11-11-999-|
A--99999999-777-|
E---------------|


Chorus:

Both Guitars
E-----------------|
B-----------------|
G--99999-77777777-|
D--99999-77777777-|
A--77777-55555555-|
E-----------------|

Intro 2:

Guitar 2
E-------------------------|
B-------------------------|
G-------------------------|
D-----5-----5-----5-----5-|
A---3--3333---3333--3333--|
E-------------------------|

Verse 2:

Guitar 2
E--------------------------------------|
B--------------------------------------|
G--5555555555-11/11/11/11-7777777777---|
D--5555555555-11/11/11/11-7777777777---|
A--3333333333-9999999999--5555555555---|
E--------------------------------------|

Guitar 1
E-------------------------------------------------------------------|
B-------------------------------------------------------------------|
G----------------4-----4--------------------------------------------|
D---2-5-3--2-5-----5-----5---0-2-5-2---0-2-5-2---0-2-5-2---0-2-5-2--|
A--3------3-----7-----7---------------------------------------------|
E-------------------------------------------------------------------|

Bridge 2:

Guitar 1
E----------------------------------------------|
B----------------------------------------------|
G----------------------------------------------|
D----------7-5---5------5------------5---------|
A--7777777-----7---7------7-5-7-5------7-5-7-5-|
E--------------------555----------555----------|


Guitar 2
E---------------|
B---------------|
G--11-11-11-999-|
D--11-11-11-999-|
A--99999999-777-|
E---------------|

Chorus:

Both Guitars
E--------------------|
B--------------------|
G--99999-77777777----|
D--99999-77777777----|
A--77777-55555555----|
E--------------------|

Bridge 3:
"Quick lets leave..."
E--
B--
G--55555555-22222222-7777777-2222222-777777-11-11-11-|
D--55555555-22222222-7777777-2222222-777777-11-11-11-|
A--33333333-00000000-5555555-0000000-555555-99999999-|
E--
i dont know the rhythm guitar for the solo yet, i'll update it sometime later

The 2nd Solo i around the same as the intro

if u have any problems email me pherrer14@hotmail.com
Suggest correction
Give kudos to tab author, rate the tab!
1 2 3 4 5
comments
print report bad tab
guest
You may want to rate the tab now too:
select rating
Wanna post a correction for this tab? Suggest correction