Oops, an error
Loading. Please wait.

Library Pictures Tab

version 1
version 1

Solo

Whole song

Interactive

11,985 views 1 this week
no commentswrite comment
1 2 3 4 5
x 6
add to favorites
launch autoscroll
font size
0
reset
how to read this tab
guitar tuner
Autoscroll
slow
fast
+/-
esc
set tempo
stop
Help us to improve Ultimate-Guitar.com Take our survey!
×
Author
Difficulty
intermediate
-------------------------------------------------------------------------------
                             LIBRARY PICTURES - Arctic Monkeys
-------------------------------------------------------------------------------
Tabbed by: Tom Gorton
Email: thomas.oliver.gorton@googlemail.com

Tuning: Standard

This is a tab for all the lead guitar tabs.
Absolute ton of vibrato in here, so add when needed.
It's pretty much completely right, but obviously feel free to correct in the 
comments/email me.

0.16
e|-------|
B|-------|
G|-------|
D|-------|
A|-------|
E|15~~~--

0.37
e|--------------------------------|
B|13/19---13-12-10----------------|
G|----------------13-11-9----9-11-|
D|------------------------11------|
A|--------------------------------|
E|--------------------------------|
0.43
e|------------------------------14^/-|
B|------10-12-14-------10-12-14------|
G|11-13----------11-13---------------|
D|-----------------------------------|
A|-----------------------------------|
E|-----------------------------------|

0.51
e|----------------------|
B|14-12-14-12-10--------|
G|---------------13-11~-|
D|----------------------|
A|----------------------|
E|----------------------|

0.59
e|-------------|     |---16~--------|
B|7~-----------|     |7~-16~--------|
G|---2~-5~7-2~-| x 3 |---14~-5~7-2~-| x 1
D|-------------|     |--------------|
A|-------------|     |--------------|
E|-------------|     |--------------|

1.37                (2 Triplets)
e|------------------------------|
B|------------------------------|
G|11~-1413-11-1413-111413111413-|
D|------------------------------|
A|------------------------------|
E|------------------------------|

                   (6 Triplets)
1.40               1+2+3+1+2+3+1+2+3+1+2+3+1+2+3+1+2+3+
e|---------------------------------------------------------|
B|-----------------------------------------------------12^-|
G|11~-1413-11-1413-111413111413111413111413111413111413----|
D|---------------------------------------------------------|
A|---------------------------------------------------------|
E|---------------------------------------------------------|

1.44
  1+2+3+1+2+3+1+2+3+1+2+3+
e|-----------------------------|
B|-----------------------------|
G|111413111413111413111413-----|
D|-------------------------14^-|
A|-----------------------------|
E|-----------------------------|

1.46
  1+2+3+1+2+3+1+ 2+3+1+ 2+3+
e|----------------------------|
B|------------12^101012^1010--|
G|111413111413----------------|
D|----------------------------|
A|----------------------------|
E|----------------------------|

1.50
e|--------14-14-14-14--|
B|---/13--19^19^19^19^-|
G|---------------------|
D|---------------------|
A|---------------------|
E|2-4------------------|

1.56
e|-------|
B|-------|
G|-------|
D|-------|
A|-------|
E|15~~~--

2.00
e|x-x-13^--|
B|---------|
G|---------|
D|---------|
A|---------|
E|---------|

2.05
e|-------|
B|-------|
G|11br---| (Bend up and then back down)
D|-------|
A|-------|
E|-------|

2.11
e|---------------    ----------------|
B|------10-12-14- x3 -------10-12----| x1
G|11-13----------    -11-13-------11-|
D|---------------    ----------------|
A|---------------    ----------------|
E|---------------    ----------------|

************************************

| ~   Hold note
| /   Slide up
| \   Slide down
| h   Hammer-on
| p   Pull-off
| ~~~ Vibrato
| +   Harmonic
| x   Mute note
| b   Bend
| pb  Pre-bend
| br  Bend release
| pbr Pre-bend release
| brb Bend release bend

************************************
Suggest correction
comments
print report bad tab
guest
You may want to rate the tab now too:
select rating
Wanna post a correction for this tab? Suggest correction