Oops, an error
Loading. Please wait.

Library Pictures Bass Tab

version 2
version 2

Whole song

Interactive

731 views 1 this week
no commentswrite comment
1 2 3 4 5
3 more votes to show rating
add to favorites
launch autoscroll
font size
0
reset
guitar tuner
Autoscroll
slow
fast
+/-
esc
set tempo
stop
Help us to improve Ultimate-Guitar.com Take our survey!
×
Author
Difficulty
intermediate
00:11
G|----------------------------------------------------------|
D|----------------------------------------------------------|
A|---4---4-7-6----4-7-6----------4-7-6-4-7-6----------------| X9
E|----------------------------------------------------------|

G|----------------------------------------------------------|
D|----------------------------------------------------------|
A|---4---4-7-6----4-7-6----------4-7-6----------------------| 
E|----------------------------------------------------------|

00:34
G|----------------------------------------------------------|
D|----------------------------------------------------------|
A|----------------------------------------------------------| X8
E|--2---2-5-4---2-5-4---2-5-4-2-5-4-------------------------|


00:54
G|----------------------------------------------------------|   
D|----\16---------------------------------------------------|
A|---------------16--15----12--14---------------------------| 
E|----------------------------------------------------------|


00:59
G|----------------------------------------------------------|
D|----------------------------------------------------------|
A|----------------------------------------------------------| X3
E|--5---5--7---2---2---0-2-5--8---8---10-----2--2--0-2-4----|



G|----------------------------------------------------------|
D|----------------------------------------------------------|
A|-----------------------------------------9--7-------------| 
E|--5---5--7---2---2---0-2-5--8---8--------------9*---------|
 

01:40
G|----------------------------------------------------------|
D|----------------------------------------------------------|
A|----------------------------------------------------------| X5
E|--2---2-5-4---2-5-4--2-5-4-2-5-4--------------------------|

STOP

01:56
E|--2-------------------------------------------------------|

02:10
G|----------------------------------------------------------|
D|----------------------------------------------------------|
A|----------------------------------------------------------| X3
E|--2---2-5-4---2-5-4--2-5-4-2-5-4--------------------------|

02:18
G|----------------------------------------------------------|
D|----------------------------------------------------------|
A|----------------------------------------------------------|
E|--2/-14---2/-14---2/-14--2/-14--2-------------------------|

Suggest correction
Give kudos to tab author, rate the tab!
1 2 3 4 5
comments
print report bad tab
guest
You may want to rate the tab now too:
select rating
Wanna post a correction for this tab? Suggest correction