Oops, an error
Loading. Please wait.

Library Pictures Tab

version 2
version 2

Whole song

Interactive

35,426 views 87 this week
2 commentsread comments
1 2 3 4 5
accurate
x 4
add to favorites
launch autoscroll
font size
0
reset
how to read this tab
guitar tuner
Autoscroll
slow
fast
+/-
esc
set tempo
stop
Help us to improve Ultimate-Guitar.com Take our survey!
×
Author
Difficulty
novice
Library Pictures - Arctic Monkeys
As played on Later... with Jools Holland 13/5/11
if you want to watch the performance the link is below
http://www.youtube.com/watch?v=CaueNnY98BM&feature=fvst

Tabbed by: funkymonk66
Email: sam@mwosb.co.uk

Tuning:EADGBe

INTRO pt.1-drums,bass,and vocals for 8 bars then:
Guitar 1: Alex
e|---------------------------------------------------------------|
B|---------------------------------------------------------------|
G|---------------------------------------------------------------|
D|--4^5---hold---(r)4\-------------------------------------------|
A|---------------------------------------------------------------|
E|---------------------------------------------------------------|
Guitar 2: Jamie
e|---------------------------------------------------------------|
B|---------------------------------------------------------------|
G|---------------------------------------------------------------|
D|---------------------------------------------------------------|
A|---------------------------------------------------------------|
E|--2^3---hold---(r)2\-------------------------------------------|

intro pt.2

Guitar 1 (Guitar 2 rest)
e||---------------------------------||  4x
B||*-------------------------------*||
G||---------------------------------||
D||-4-7-6-4-7-6-4-7-4-7-6-4-7-6-4-4-||
A||*-------------------------------*||
E||---------------------------------||
Guitar 1 
e||---------------------------------------|| 8x  riff 1
B||*-------------------------------------*||
G||---------------------------------------||
D||---------------------------------------||
A||*-------------------------------------*||
E||-2---2--5--4--2--5--4--2--5-4-2-5-4-2--||

Guitar 2 lead part
e|------------------------------8--7-5---------------------------|
B|------------------10-/-19-------------8--7--5-----5--7~~-------|
G|-----------------------------------------------6---------------|
D|---------------------------------------------------------------|
A|---------------------------------------------------------------|
E|---------------------------------------------------------------|

e|-----------------------------------------------------------------|
B|--7--9--10--12--14---7--9--10--12--14-----/-19~~-14--12--14--12--|
G|-----------------------------------------------------------------|
D|-----------------------------------------------------------------|
A|-----------------------------------------------------------------|
E|-----------------------------------------------------------------|
*= let ring with feedback
e|---------------------------------------------------------------|
B|-10--9--7*~~~--------------------------------------------------|
G|---------------------------------------------------------------|
D|---------------------------------------------------------------|
A|---------------------------------------------------------------|
E|---------------------------------------------------------------|

Bridge

Guitar 1 w/ clean tone
chords: 
||* A || F#m || C || F#m *|| 4x


Guitar 2 w/ clean tone and vibrato effect 
e||----------------|----------------|----------------|---------------||4x
B||*-7-------------|----------------|----------------|--------------*||
G||----------------|-2--------------|-5------------7-|-2-------------||
D||----------------|----------------|----------------|---------------||
A||*---------------|----------------|----------------|--------------*||
E||----------------|----------------|----------------|---------------||



Guitar 1 solo (guitar 2 plays main riff 5x and finishes on f#)                   

e|-----------------||-------------------------------------||-----------|
B|-----------------||*-----------------------------------*||-----13^14-|
G|-11--11-13^14^13-||-11-13^14^13-11-13^14^13-11-13^14^13-||--11-------|
D|-----------------||*-----------------------------------*||-----------|
E|-----------------||-------------------------------------||-----------|

e|---------------------------------------------------------|
B|---------------------------------------------------------|
G|-11-13^14^13-11-13^14^13-11-13^14^13-11-13^14^13-11------|
D|----------------------------------------------------14---|
A|---------------------------------------------------------|
E|---------------------------------------------------------|

e|-----------------------------------------------------------------|
B|-------------------------11-13^14^13-11-13^14^13-11-13^14^13-11~-|
G|-11-13^14^13-11-13^14^13-----------------------------------------|
D|-----------------------------------------------------------------|
A|-----------------------------------------------------------------|
E|-----------------------------------------------------------------|

e|---------------------------------------------------------------|
B|--------------17^19-17^19-17^19-17^19--------------------------|
G|-2------/17----------------------------------------------------|
D|---------------------------------------------------------------|
A|---------------------------------------------------------------|
E|---------------------------------------------------------------|

Guitar 1 Ending:
play intro pt.1 twice then
Guitar 1 plays main riff 3x and finishes on this:
e|----------------------------------------|
B|----------------------------------------|
G|----------------------------------------|
D|----------------------------------------|
A|----------------------------------------|
E|-2-5-4-2-5-4-2-5-4-2-5-4-2-5-4-2~\------|

Guitar 2 ending:
play intro pt.1 once then on 2nd time play:
e|------------------------| 
B|------------------------|
G|-11~~//////////---------| //////=tremolo with the 
D|------------------------|        whammy bar
A|------------------------|
E|------------------------|
When Guitar 1 plays main riff play:
e||----------------------||3x
B||*-7--9--10--12--14---*||
G||----------------------||
D||----------------------||
A||*--------------------*||
E||----------------------||
  End on
e|-------------------|
B|-7--9--10--12--7~--|
G|-------------------|
D|-------------------|
A|-------------------|
E|-------------------|

That's it this is a new song off their new album that comes out June 6th.
Also sorry if the solo is confusing this is my first tab so its a bit messy.

| /  slide up
| \  slide down
| h  hammer-on
| p  pull-off
| ~  vibrato
Suggest correction
comments
print report bad tab
2 comments total.
0 reply
HiImAlexD 10 wrote on June 13 2011, 04:36 pm

Hey, i think the main bass/rythem if is
E--2-454-454-454-2-42-2-- then repeated using the last 2 as the first one if that makes sence

0 reply
sizifparanoja 100 wrote on August 13 2011, 07:55 am

B|--------------17^19-17^19-17^19-17^19--------------------------|
G|-2------/14----------------------------------------------------|


Instead of 14th fret it should be 17th:

B|--------------17^19-17^19-17^19-17^19--------------------------|
G|-2------/17----------------------------------------------------|


Guitar 2 ending:
play intro pt.1 once then on 2nd time play:

You should add a note here:

play intro pt.1 once then

B|----18\------------------------------------|


2nd time play tremolo on G string,it sounds better:

G|---11~~//////////----------|

guest
You may want to rate the tab now too:
select rating
Please do not post tabs as comments. Select "correction" instead!