Oops, an error
Loading. Please wait.

Library Pictures tab

version 2
version 2

Whole song

Interactive

39,002 views 42 this week
2 commentsread comments
1 2 3 4 5
x 7
add to favorites
×
Save as Personal and add changes to this tab that will be seen only by you. Learn more ›
×
You can save this tab as Personal to edit and correct it or add notes. All changes will be seen only by you. Learn more »
launch autoscroll
font size
0
reset
how to read this tab
guitar tuner
edit
Autoscroll
slow
fast
+/-
esc
set tempo
stop
Author
Difficulty
Library Pictures - Arctic Monkeys
As played on Later... with Jools Holland 13/5/11
if you want to watch the performance the link is below
http://www.youtube.com/watch?v=CaueNnY98BM&feature=fvst

Tabbed by: funkymonk66
Email: sam@mwosb.co.uk

Tuning:EADGBe

[Intro 1]

drums,bass,and vocals for 8 bars then:
Guitar 1: Alex
e|---------------------------------------------------------------|
B|---------------------------------------------------------------|
G|---------------------------------------------------------------|
D|--4^5---hold---(r)4\-------------------------------------------|
A|---------------------------------------------------------------|
E|---------------------------------------------------------------|
Guitar 2: Jamie
e|---------------------------------------------------------------|
B|---------------------------------------------------------------|
G|---------------------------------------------------------------|
D|---------------------------------------------------------------|
A|---------------------------------------------------------------|
E|--2^3---hold---(r)2\-------------------------------------------|

[Intro 2]

Guitar 1 (Guitar 2 rest)
e||---------------------------------||
B||*-------------------------------*||
G||---------------------------------||
D||-4-7-6-4-7-6-4-7-4-7-6-4-7-6-4-4-||
A||*-------------------------------*||
E||---------------------------------||(x4)
Guitar 1 
e||---------------------------------------||riff 1
B||*-------------------------------------*||
G||---------------------------------------||
D||---------------------------------------||
A||*-------------------------------------*||
E||-2---2--5--4--2--5--4--2--5-4-2-5-4-2--||(x8)

Guitar 2 lead part
e|------------------------------8--7-5---------------------------|
B|------------------10-/-19-------------8--7--5-----5--7~~-------|
G|-----------------------------------------------6---------------|
D|---------------------------------------------------------------|
A|---------------------------------------------------------------|
E|---------------------------------------------------------------|

e|-----------------------------------------------------------------|
B|--7--9--10--12--14---7--9--10--12--14-----/-19~~-14--12--14--12--|
G|-----------------------------------------------------------------|
D|-----------------------------------------------------------------|
A|-----------------------------------------------------------------|
E|-----------------------------------------------------------------|
*= let ring with feedback
e|---------------------------------------------------------------|
B|-10--9--7*~~~--------------------------------------------------|
G|---------------------------------------------------------------|
D|---------------------------------------------------------------|
A|---------------------------------------------------------------|
E|---------------------------------------------------------------|

[Bridge]

Guitar 1 w/ clean tone
chords: 
||* A || F#m || C || F#m *|| 4x


Guitar 2 w/ clean tone and vibrato effect 
e||----------------|----------------|----------------|---------------||
B||*-7-------------|----------------|----------------|--------------*||
G||----------------|-2--------------|-5------------7-|-2-------------||
D||----------------|----------------|----------------|---------------||
A||*---------------|----------------|----------------|--------------*||
E||----------------|----------------|----------------|---------------||(x4)

[Solo]
(guitar 2 plays main riff 5x and finishes on f#)                   

e|-----------------||-------------------------------------||-----------|
B|-----------------||*-----------------------------------*||-----13^14-|
G|-11--11-13^14^13-||-11-13^14^13-11-13^14^13-11-13^14^13-||--11-------|
D|-----------------||*-----------------------------------*||-----------|
E|-----------------||-------------------------------------||-----------|

e|---------------------------------------------------------|
B|---------------------------------------------------------|
G|-11-13^14^13-11-13^14^13-11-13^14^13-11-13^14^13-11------|
D|----------------------------------------------------14---|
A|---------------------------------------------------------|
E|---------------------------------------------------------|

e|-----------------------------------------------------------------|
B|-------------------------11-13^14^13-11-13^14^13-11-13^14^13-11~-|
G|-11-13^14^13-11-13^14^13-----------------------------------------|
D|-----------------------------------------------------------------|
A|-----------------------------------------------------------------|
E|-----------------------------------------------------------------|

e|---------------------------------------------------------------|
B|--------------17^19-17^19-17^19-17^19--------------------------|
G|-2------/17----------------------------------------------------|
D|---------------------------------------------------------------|
A|---------------------------------------------------------------|
E|---------------------------------------------------------------|

Guitar 1 Ending:
play intro pt.1 twice then
Guitar 1 plays main riff 3x and finishes on this:
e|----------------------------------------|
B|----------------------------------------|
G|----------------------------------------|
D|----------------------------------------|
A|----------------------------------------|
E|-2-5-4-2-5-4-2-5-4-2-5-4-2-5-4-2~\------|

Guitar 2 ending:
play intro pt.1 once then on 2nd time play:
e|------------------------| 
B|------------------------|
G|-11~~//////////---------| //////=tremolo with the 
D|------------------------|        whammy bar
A|------------------------|
E|------------------------|
When Guitar 1 plays main riff play:
e||----------------------||
B||*-7--9--10--12--14---*||
G||----------------------||
D||----------------------||
A||*--------------------*||
E||----------------------||(x3)
  End on
e|-------------------|
B|-7--9--10--12--7~--|
G|-------------------|
D|-------------------|
A|-------------------|
E|-------------------|

That's it this is a new song off their new album that comes out June 6th.
Also sorry if the solo is confusing this is my first tab so its a bit messy.



************************************

| /  slide up
| \  slide down
| h  hammer-on
| p  pull-off
| ~  vibrato

************************************

            
            
Suggest correction
Creating personal tab
Creating personal tab
You can edit any tab online and save it as your Personal.

You can edit, replace or remove any tab part or add personal notes – all changes will be seen only by you.

Personal tabs can be accessed anytime from any device, even offline.
Learn more »
comments
print report bad tab
2 comments total.
0 reply
HiImAlexD 10 Jun 13, 2011 12:36 PM

Hey, i think the main bass/rythem if is
E--2-454-454-454-2-42-2-- then repeated using the last 2 as the first one if that makes sence

0 reply
sizifparanoja 100 Aug 13, 2011 03:55 AM

B|--------------17^19-17^19-17^19-17^19--------------------------|
G|-2------/14----------------------------------------------------|


Instead of 14th fret it should be 17th:

B|--------------17^19-17^19-17^19-17^19--------------------------|
G|-2------/17----------------------------------------------------|


Guitar 2 ending:
play intro pt.1 once then on 2nd time play:

You should add a note here:

play intro pt.1 once then

B|----18\------------------------------------|


2nd time play tremolo on G string,it sounds better:

G|---11~~//////////----------|

guest
You may want to rate the tab now too:
select rating
Wanna post a correction for this tab? Suggest correction