Oops, an error
Loading. Please wait.

Library Pictures Bass Tab

version 3
version 3

Whole song

Interactive

1,013 views 1 this week
no commentswrite comment
1 2 3 4 5
please rate
add to favorites
launch autoscroll
font size
0
reset
guitar tuner
Autoscroll
slow
fast
+/-
esc
set tempo
stop
Help us to improve Ultimate-Guitar.com Take our survey!
×
Author
Difficulty
intermediate
Artist: Arctic Monkeys

Allbum: Suck It And See

Song: Library Pictures


Verse

G||---------------------------|--------------------------||
D||---------------------------|--------------------------||  x9
A||-9------9-12--11------9-12-|-11-----9-12--11-9--12-11-||
E||---------------------------|--------------------------||

G||---------------------------|--------------------------||
D||---------------------------|--------------------------||  
A||-9------9-12--11------9-12-|-11-----9-12--11----------||
E||---------------------------|--------------------------||


Solo

G||------------------------|----------------------||
D||------------------------|----------------------||  x7
A||------------------------|----------------------||
E||-2------2-5--4------2-5-|-4------2-5--4-2--5-4-||

G||------------------------|----------------------||
D||------------------------|----------------------||  
A||------------------------|----------------------||
E||-2------2-5--4------2-5-|-4------2-5--4----2---||

(half the time)

G||----------------------|-----------------------|
D||-16-------------------|-----------------------|
A||-----------------16---|-15---------12----14---|
E||----------------------|-----------------------|


Chorus (?)

G||---------------------|---------------------|
D||---------------------|---------------------|
A||---------------------|-9------9------------|
E||-5---5x-5----5--7\---|-------------0--2-5/-|

G||----------------------|--------------------|
D||----------------------|--------------------|
A||----------------------|-9------9-----------|
E||-8------8----8--10\---|-------------0--2-4-|

---

G||---------------------|---------------------|
D||---------------------|---------------------|
A||---------------------|-9------9------------|
E||-5------5----5--7\---|-------------0--2-5/-|

G||----------------------|----------------------|
D||----------------------|----------------------|
A||----------------------|-9------9-------------|
E||-8------8----8--10\---|-------------020--2-4-|

---

G||---------------------|---------------------|
D||---------------------|---------------------|
A||---------------------|-9------9------------|
E||-5------5----5--7\---|-------------0--2-5/-|

G||----------------------|----------------------|
D||----------------------|----------------------|
A||----------------------|-9------9-------------|
E||-8------8----8--10\---|-------------00---2-4-|

---
G||---------------------|---------------------|
D||---------------------|---------------------|
A||---------------------|-9------9------------|
E||-5------5----5--7\---|-------------0--2-5/-|

G||---------------------|----------------------|
D||---------------------|----------------------|
A||--------/9----7----3-|----------------------|
E||-8-------------------|-2--------------------|


Verse

G||------------------------|----------------------||
D||------------------------|----------------------||  x5
A||------------------------|----------------------||
E||-2------2-5--4------2-5-|-4------2-5--4-2--5-4-||

G||------------------------||
D||------------------------||
A||------------------------||
E||-2----------------------||

(wait) until "Of an 'ip-dip dogshit rock and roll"

G||------------------------|----------------------||
D||------------------------|----------------------||  x3
A||------------------------|----------------------||
E||-2------2-5--4------2-5-|-4------2-5--4-2--5-4-||

G||--------------------|--------------------|
D||--------------------|--------------------|
A||--------------------|--------------------|
E||-2-5--4-2--5-4--2-5-|-4-2--5-4-----------|


tab by: Pedro Zappa
Suggest correction
Give kudos to tab author, rate the tab!
1 2 3 4 5
comments
print report bad tab
guest
You may want to rate the tab now too:
select rating
Wanna post a correction for this tab? Suggest correction