Oops, an error
Loading. Please wait.

Little Illusion Machine The Death Ramps Bass Tab

1,342 views 1 this week
no commentswrite comment
1 2 3 4 5
please rate
add to favorites
launch autoscroll
font size
0
reset
guitar tuner
Tab Pro tools
  • play this tab
  • loop segment
  • change instrument
  • show fretboard
  • metronome
×
Best way to learn
"Little Illusion Machine The Death Ramps"
Autoscroll
slow
fast
+/-
esc
set tempo
stop
Contributor
Difficulty
Tuning
novice
D A D G B E
Although it's a song by The Death Ramps, it's still an Arctic Monkeys song.

G|--------|
D|--------|
A|4---4---|
D|--------|

G|---------------------------------|
D|---------------------------------|
A|---------------------------------|x3
D|5-5-8-5-0-0-8--5---5-8-5-0-0-8---|

G|---------------------------------|
D|---------------------------------|
A|-------------------------4---4---|
D|5-5-8-5-0-0-8--5---5-8-5---------|

Verse:
G|---------------------------------|
D|---------------------------------|
A|---------------------------------|x3
D|5-5-8-5-0-0-8--5---5-8-5-0-0-8---|

G|---------------------------------|
D|---------------------------------|
A|-------------------------4---4---|
D|5-5-8-5-0-0-8--5---5-8-5---------|

Pre-Chorus:
G|----------------------------------|
D|----------------------------------|
A|----------------------------------|
D|8-8-8-8-8-8-8-8-7---7-7-7-6-6-6---|

Chorus:
G|----------------------------------------------------------|
D|----------------------------------------------------------|
A|-------------5--5-5--5-5-5-6--6-6--66-8-6-3--3-3--3-3-3-3-|
D|5--5--55-5-5----------------------------------------------|

G|----------------------------------------------------------|
D|----------------------------------------------------------|
A|-------------5--5-5--5-5-5-6--6-6--66-8-6-3--3-3--4---4---|
D|5--5--55-5-5----------------------------------------------|

Post-Chorus/Verse:
G|--------------------------------|
D|5-5-8-5-0-0-8--5--5-8-5-0-0-8---|
A|--------------------------------|x8
D|--------------------------------|

G|---------------------------------|
D|---------------------------------|
A|---------------------------------|x5
D|5-5-8-5-0-0-8--5---5-8-5-0-0-8---|

G|---------------------------------|
D|---------------------------------|
A|-------------------------4---4---|
D|5-5-8-5-0-0-8--5---5-8-5---------|

Pre-Chorus:
G|----------------------------------|
D|----------------------------------|
A|----------------------------------|
D|8-8-8-8-8-8-8-8-7---7-7-7-6-6-6---|

Chorus:
G|----------------------------------------------------------|
D|----------------------------------------------------------|
A|-------------5--5-5--5-5-5-6--6-6--66-8-6-3--3-3--3-3-3-3-|x3
D|5--5--55-5-5----------------------------------------------|

G|------------------------------------------------------------|
D|------------------------------------------------------------|
A|-------------5--5-5--3h5-5-5-6--6-6--66-6-6-3--3-3--4---4---|
D|5--5--55-5-5------------------------------------------------|

Bridge:
G|-------------------------------|  |---------------------------------|
D|-------------------------------|  |---------------------------------|
A|5--5--55-5-5-5-----------------|x3|-------------------------4---4---|
D|---------------5--5-5-5-5--5-5-|  |0--0--0-0-0-0-3--3-3-3-3---------|

Solo:
G|----------------------------------------------------------|
D|----------------------------------------------------------|
A|-------------5--5-5--5-5-5-6--6-6--66-8-6-3--3-3--3-3-3-3-|x3
D|5--5--55-5-5----------------------------------------------|

G|----------------------------------------------------------|
D|----------------------------------------------------------|
A|-------------5--5-5--5-5-5-6--6-6--66-8-6-3~~-------------|
D|5--5--55-5-5----------------------------------------------|
comments
We did not receive enough feedback on this tab! Please rate:
print report bad tab
1 2 3 4 5
I want to post or [tab]
guest
You may want to rate the tab now too:
select rating
Please do not post tabs as comments. Select "correction" instead!