Oops, an error
Loading. Please wait.

Little Illusion Machine Wirral Riddler Chords

3,670 views 15 this week
no commentswrite comment
1 2 3 4 5
please rate
add to favorites
launch autoscroll
font size
0
reset
transpose
0
reset
display chords
guitar tuner
Autoscroll
slow
fast
+/-
esc
set tempo
stop
Help us to improve Ultimate-Guitar.com Take our survey!
×
Author
Difficulty
Tuning
novice
D A D G B E
Miles Kane feat. The Death Ramps
Little Illusion Machine
Hellcat Spangled Shalalala (B-Side)
Tuning: Dropped D

Ok, i'm not 100% sure because when i worked this out i had a missing string and i
was on an acoustic, BUT i think i have enough to help you out.
P.s when i get my electric sorted i will work out the solo.
Peace.

Chord shapes at the bottom

(Dots (.) mean stops, so like DUN. DUN.)

Main Riff/Verse's
                                     This happens on the changes
e|----------------------------------|--------|
b|----------------------------------|--------|
g|----------------------------------|--------|
d|----------------------------------|--------|
a|----------------------------------|-4.-4.--|
d|-5-5-8-5--0-0-8-5---5-8-5--0-0-8--|--------|

So the verse's have the above riff, ended with the change riff.

Pre Chorus

A# x8, A x4, Ab x4

First Chorus

G                D       D#                    C
Send a letter to me baby, I'm on the edge of my seat
G                D       D#                    C
Send a letter to me baby, Little Illusion Machine

C#. C#.

Second Chorus

G                D       D#                    C
Send a letter to me baby, I'm on the edge of my seat
G                D       D#                    C
Send a letter to me baby, Little Illusion Machine
G                D                D#              C
I tried it and I liked it but, it just never gets close enough
G                D       D#                    C
Send a letter to me baby, yeah

D. D.

Bridge

D#               A#
(Wirral)        So tell me where have you been
D#               A#
(Wirral)        Little Illusion Machine
D#               A#
(wirral)        Hoping tonight is gonna
C
Send me back to you

C#.C#.

Solo (May not be 100%)

(~ =hold note)

e|-------------------------------------------------
B|-------------------------------------------------
G|---------3~~---5~---3/5--5\3~---3/5--5\3~---3/5--
D|-5~~~~~~-----------------------------------------
A|-------------------------------------------------
D|-5~----------------------------------------------

e|---------------------------------------------
B|-13b(multiple picks)-13-11-------------------
G|---------------------------12-10--7/5-3hp5---
D|-------------------------------------------5-
A|---------------------------------------------
D|---------------------------------------------

e|----------------------------------------------
B|----------------------------------------------
G|-----3-5/7-5\3--------------------------3-5-7-
D|-3-5------------5~--3~--------------3-5-------
A|------------------------5~--3~--3-5-----------
D|----------------------------------------------

e|-------------------------------------------
B|-13b--------13b----------/13-/15-/18-/20b--
G|-----12-10------12-10----------------------
D|-------------------------------------------
A|-------------------------------------------
D|-------------------------------------------


and thats pretty much it!

Chords (only using the top 3 string cause it's dropped D)
   A#  A   Ab  G   D    D#   C
G|-------------------------------|
D|-8---7---6---5---12---13---10--|
A|-8---7---6---5---12---13---10--|
D|-8---7---6---5---12---13---10--|
Suggest correction
Give kudos to tab author, rate the tab!
1 2 3 4 5
comments
print report bad tab
guest
You may want to rate the tab now too:
select rating
Please do not post tabs as comments. Select "correction" instead!