Oops, an error
Loading. Please wait.

Little Illusion Machine Wirral Riddler Tab

version 1
version 1

Whole song

9,586 views 3 this week
1 commentread comment
1 2 3 4 5
x 5
add to favorites
launch autoscroll
font size
0
reset
how to read this tab
guitar tuner
Autoscroll
slow
fast
+/-
esc
set tempo
stop
Help us to improve Ultimate-Guitar.com Take our survey!
×
Song: Little Illusion Machine (Wirral Riddler)
Artist: Arctic Monkeys featuring Miles Kane
Album: The Hellcat Spangled Shalalala (b-side)
Additional: Drop D tuning

Main riff (from 0:00):

e|--------------|--------------|-----------------|
B|--------------|--------------|-----------------|
G|--------------|--------------|-----------------|
D|--------------|--------------|-----------------|
A|--------------|--------------|-----------4--4--|
D|--5--5--8--5--|--0--0--8--5--|--5--8--5--------|

Walkdown:

e|-----------------------|
B|-----------------------|
G|--------------7--8--5--|
D|--8--7--6--5--7--8--5--|
A|--8--7--6--5--5--6--3--|
D|--8--7--6--5-----------|

Lick (1:13):

e|----------------------|
B|--11b13--11b13--3/10--|
G|----------------------|
D|----------------------|
A|----------------------|
D|----------------------|
Suggest correction
comments
print report bad tab
1 comment total.
0 reply
bassy1 10 Sep 05, 2011 10:35 AM

tab the solo!!!!!!!!!!!!!!!!!!!!!!! pleeeeeeeeeeeeeeeeeeeease

guest
You may want to rate the tab now too:
select rating
Wanna post a correction for this tab? Suggest correction