Oops, an error
Loading. Please wait.

Little Illusion Machine Wirral Riddler tab

version 2
version 2

Whole song

646 views 3 this week
no commentswrite comment
1 2 3 4 5
x 3
add to favorites
×
Save as Personal and add changes to this tab that will be seen only by you. Learn more ›
×
You can save this tab as Personal to edit and correct it or add notes. All changes will be seen only by you. Learn more »
launch autoscroll
font size
0
reset
how to read this tab
guitar tuner
edit
Autoscroll
slow
fast
+/-
esc
set tempo
stop
-------------------------------------------------------------------------------
                // LITTLE ILLUSION MACHINE (WIRRAL RIDDLER) //

                      Miles Kane And The Death Ramps
-------------------------------------------------------------------------------

Tabbed by: mileskane

Tuning: Drop D (DADGBe)

[INTRO]

e|---------------------------------------------------------------------------|
B|---------------------------------------------------------------------------|
G|---------------------------------------------------------------------------|
D|---------------------------------------------------------------------------|
A|---------------------------------------------------------------------------|
D|-5-5-8-5-0-0-8-5---5-8-5-0-0-8---5-5-8-5-0-0-8-5---5-8-5-11-11-------------|

[VERSE 1]

e|---------------------------------------------------------------------------|
B|---------------------------------------------------------------------------|
G|---------------------------------------------------------------------------|
D|---------------------------------------------------------------------------|
A|---------------------------------------------------------------------------|
D|-5-5-8-5-0-0-8-5---5-8-5-0-0-8---5-5-8-5-0-0-8-5---5-8-5-0-0-8-------------|

e|---------------------------------------------------------------------------|
B|---------------------------------------------------------------------------|
G|---------------------------------------------------------------------------|
D|---------------------------------------------------------------------------|
A|---------------------------------------------------------------------------|
D|-5-5-8-5-0-0-8-5---5-8-5-0-0-8---5-5-8-5-0-0-8-5---5-8-5-11-11-------------|

e|---------------------------------------------------------------------------|
B|---------------------------------------------------------------------------|
G|---------------------------------------------------------------------------|
D|---------------------------------------------------------------------------|
A|---------------------------------------------------------------------------|
D|-5-5-8-5-0-0-8-5---5-8-5-0-0-8---5-5-8-5-0-0-8-5---5-8-5-0-0-8-------------|

e|---------------------------------------------------------------------------|
B|---------------------------------------------------------------------------|
G|---------------------------------------------------------------------------|
D|---------------------------------------------------------------------------|
A|---------------------------------------------------------------------------|
D|-5-5-8-5-0-0-8-5---5-8-5-0-0-8---5-5-8-5-0-0-8-5---5-8-5-11-11-------------|

[PRE-CHORUS]

e|---------------------------------------------------------------------------|
B|---------------------------------------------------------------------------|
G|---------------------------------------------------------------------------|
D|-8--7--6-------------------------------------------------------------------|
A|-8--7--6-------------------------------------------------------------------|
D|-8--7--6-------------------------------------------------------------------|

[CHORUS]

e|---------------------------------------------------------------------------|
B|---------------------------------------------------------------------------|
G|---------------------------------------------------------------------------|
D|-5--12--13--10----5--12--13--10--11----------------------------------------|
A|-5--12--13--10----5--12--13--10--11----------------------------------------|
D|-5--12--13--10----5--12--13--10--11----------------------------------------|

[VERSE 2]

'Riding through the gloom'

e|---------------------------------------------------------------------------|
B|-11b13-13-13-13-13-6b------------------------------------------------------|
G|---------------------------------------------------------------------------|
D|---------------------------------------------------------------------------|
A|---------------------------------------------------------------------------|
D|---------------------------------------------------------------------------|

'Something beautiful'

e|---------------------------------------------------------------------------|
B|---------------------------------------------------------------------------|
G|---------------------------------------------------------------------------|
D|-/5------------------------------------------------------------------------|
A|---------------------------------------------------------------------------|
D|---------------------------------------------------------------------------|

'He's ridden the riddle...'

e|---------------------------------------------------------------------------|
B|---------------------------------------------------------------------------|
G|---------------------------------------------------------------------------|
D|---------------------------------------------------------------------------|
A|---------------------------------------------------------------------------|
D|-5-5-8-5-0-0-8-5---5-8-5-0-0-8---5-5-8-5-0-0-8-5---5-8-5-0-0-8-------------|

e|---------------------------------------------------------------------------|
B|---------------------------------------------------------------------------|
G|---------------------------------------------------------------------------|
D|---------------------------------------------------------------------------|
A|---------------------------------------------------------------------------|
D|-5-5-8-5-0-0-8-5---5-8-5-0-0-8---5-5-8-5-0-0-8-5---5-8-5-11-11-------------|

[PRE-CHORUS]

e|---------------------------------------------------------------------------|
B|---------------------------------------------------------------------------|
G|---------------------------------------------------------------------------|
D|-8--7--6-------------------------------------------------------------------|
A|-8--7--6-------------------------------------------------------------------|
D|-8--7--6-------------------------------------------------------------------|

[CHORUS]

e|---------------------------------------------------------------------------|
B|---------------------------------------------------------------------------|
G|---------------------------------------------------------------------------|
D|-5--12--13--10----5--12--13--10--------------------------------------------|
A|-5--12--13--10----5--12--13--10--------------------------------------------|
D|-5--12--13--10----5--12--13--10--------------------------------------------|

e|---------------------------------------------------------------------------|
B|---------------------------------------------------------------------------|
G|---------------------------------------------------------------------------|
D|-5--12--13--10----5--12--13--10--12----------------------------------------|
A|-5--12--13--10----5--12--13--10--12----------------------------------------|
D|-5--12--13--10----5--12--13--10--12----------------------------------------|

[BRIDGE]

e|---------------------------------------------------------------------------|
B|---------------------------------------------------------------------------|
G|---------------------------------------------------------------------------|
D|-13--8--13--8--13--8--10--11-----------------------------------------------|
A|-13--8--13--8--13--8--10--11-----------------------------------------------|
D|-13--8--13--8--13--8--10--11-----------------------------------------------|

[SOLO]

e|---------------------------------------------------------------------------|
B|---------------------------------------------------------------------------|
G|---------------------------------------------------------------------------|
D|-5~---5--5-5-5/8---8-8-8-10-10-10-8---8-8-8-10-10-10-8---8-8-8-10-10-10-8--|
A|---------------------------------------------------------------------------|
D|---------------------------------------------------------------------------|

e|---------------------------------------------------------------------------|
B|-----------11b13-13-13-13-13-13-13-13-11b13r11-8---------------------------|
G|-------------------------------------------------10b12r10-7----------------|
D|-8-8-8-10---------------------------------------------------10b11-8--------|
A|---------------------------------------------------------------------------|
D|---------------------------------------------------------------------------|

e|---------------------------------------------------------------------------|
B|-------------------------------------------------8h11b13--8-6--8-6--11b13--|
G|-----------7h10b11--------------------------7h10---------------------------|
D|------8h10---------10---8/10/8-8-------8h10--------------------------------|
A|-8h10----------------------------8-10--------------------------------------|
D|---------------------------------------------------------------------------|

e|-----------9------11-----13-----15-----------------------------------------|
B|-8-6--8-6--11b13--13b15--15b17--17b19--------------------------------------|
G|---------------------------------------------------------------------------|
D|---------------------------------------------------------------------------|
A|---------------------------------------------------------------------------|
D|---------------------------------------------------------------------------|

************************************

| h   Hammer-on
| b   Bend
| r   Release
| /   Slide
| ~   Vibrato

************************************

            
            
Suggest correction
Creating personal tab
Creating personal tab
You can edit any tab online and save it as your Personal.

You can edit, replace or remove any tab part or add personal notes – all changes will be seen only by you.

Personal tabs can be accessed anytime from any device, even offline.
Learn more »
Give kudos to tab author, rate the tab!
1 2 3 4 5
comments
print report bad tab
guest
You may want to rate the tab now too:
select rating
Wanna post a correction for this tab? Suggest correction