Oops, an error
Loading. Please wait.

Love Is A Laserquest Bass Tab

version 1
version 1

Whole song

Interactive

5,343 views 15 this week
no commentswrite comment
1 2 3 4 5
excellent!
x 5
add to favorites
launch autoscroll
font size
0
reset
guitar tuner
Autoscroll
slow
fast
+/-
esc
set tempo
stop
Help us to improve Ultimate-Guitar.com Take our survey!
×
Author
Difficulty
Artist: Arctic Monkeys

Allbum: Suck It And See

Song: Love Is A Laserquest


Intro

G||--------------------|--------------------||
D||--------------------|--------------------||
A||-2-2--2-2--2-2--2-2-|-2-2--2-2--2-2--2-2-||
E||--------------------|--------------------||


Verse

G||---------------------|----------------------------|
D||---------------------|----------------------------|
A||-2-2--2-2/--6-4--2/--|-11-11--11-11--11-11--13-14-|
E||---------------------|----------------------------|

G||---------------------|--------------------||
D||---------------------|--------------------||  x3
A||----------------7----|--------------------||
E||-9-9--9-9--9-9----9\-|-2-2--2-2--2-0--2-4-||

G||---------------------|----------------------------|
D||---------------------|----------------------------|
A||-2-2--2-2/--6-4--2/--|-11-11--11-11--11-11--13-14-|
E||---------------------|----------------------------|

G||---------------------|--------------------|--------------------|
D||---------------------|--------------------|--------------------|
A||----------------7----|--------------------|------------------6-|
E||-9-9--9-9--9-9----9\-|-2-2--2-2--2-2--2-2-|-2-2--2-0--2-4--2---|


Chorus

G||---------------------|---------------------|
D||---------------------|---------------------|
A||-7-7--7-7--7----7-11-|-9-9--9-9--9-11--9---|
E||-------------7-------|-------------------9-|

G||--------------------|--------------------|
D||--------------------|--------------------|
A||------------------6-|-7-7--7-7--7-7--7-6-|
E||-7-7--7-7--7-7--79--|--------------------|

G||-----------------------|--------------------|
D||-----------------------|--------------------|
A||-7-7--7-7--7-7/--11-11-|-9-9--9-9--7-7--7-7-|
E||-----------------------|--------------------|

G||--------------------|--------------------|
D||--------------------|--------------------|
A||-2-2--2-2--2-2--2-2-|-2-2--2-2--2-2--2-2-|
E||--------------------|--------------------|


Verse 2

G||---------------------|----------------------------|
D||---------------------|----------------------------|
A||-2-2--2-2/--6-4--2/--|-11-11--11-11--11-11--13-14-|
E||---------------------|----------------------------|

G||---------------------|--------------------|
D||---------------------|--------------------|
A||----------------7----|--------------------|
E||-9-9--9-9--9-9----9\-|-2-2--2-2--2-0--2-4-|

G||---------------------|----------------------------|
D||---------------------|----------------------------|
A||-2-2--2-2/--6-4--2/--|-11-11--11-11--11-11--13-14-|
E||---------------------|----------------------------|

G||---------------------|--------------------|--------------------|
D||---------------------|--------------------|--------------------|
A||----------------7----|--------------------|------------------6-|
E||-9-9--9-9--9-9----9\-|-2-2--2-2--2-2--2-2-|-2-2--2-0--2-4--2---|


Chorus 2

G||---------------------|---------------------|
D||---------------------|---------------------|
A||-7-7--7-7--7----7-11-|-9-9--9-9--9-11--9---|
E||-------------7-------|-------------------9-|

G||--------------------|--------------------|
D||--------------------|--------------------|
A||------------------6-|-7-7--7-7--7-7--7-6-|
E||-7-7--7-7--7-7--79--|--------------------|

G||-----------------------|--------------------|
D||-----------------------|--------------------|
A||-7-7--7-7--7-7/--11-11-|-9-9--9-9--7-7--7-7-|
E||-----------------------|--------------------|


Solo

G||--------------------|--------------------|
D||--------------------|--------------------|
A||--------------------|-11--------------14-|
E||-7--------------7/--|--------------------|

G||--------------------|--------------------|
D||--------------------|--------------------|
A||----------------7\--|--------------------|
E||-9------------------|-2---------------4/-|

G||--------------------|--------------------|
D||--------------------|--------------------|
A||--------------------|-11--------------14-|
E||-7--------------7/--|--------------------|

G||--------------------|--------------------|--------------------|
D||--------------------|--------------------|--------------------|
A||----------------7\--|--------------------|------------------6-|
E||-9------------------|-2------------------|-2------0--2-4--2---|


Chorus 2

G||---------------------|---------------------|
D||---------------------|---------------------|
A||-7-7--7-7--7----7-11-|-9-9--9-9--9-11--9---|
E||-------------7-------|-------------------9-|

G||--------------------|--------------------|
D||--------------------|--------------------|
A||------------------6-|-7-7--7-7--7-7--7-6-|
E||-7-7--7-7--7-7--79--|--------------------|

G||-----------------------|--------------------|
D||-----------------------|--------------------|
A||-7-7--7-7--7-7/--11-11-|-9-9--9-9--7-7--7-7-|
E||-----------------------|--------------------|

G||--------------------|--------------------|
D||--------------------|--------------------|
A||--------------------|------------------6-|
E||-4-4--4-4--4-4--4-4-|-4-4--4-0--2-4--2---|

G||-----------------------|--------------------|-----|
D||-----------------------|--------------------|-----|
A||-7-7--7-7--7-7/--11-11-|-9-9--9-9--7-7--7-7-|-----|
E||-----------------------|--------------------|--7--|


tab by: Pedro Zappa
Suggest correction
comments
print report bad tab
guest
You may want to rate the tab now too:
select rating
Please do not post tabs as comments. Select "correction" instead!