Oops, an error
Loading. Please wait.

Love Is A Laserquest Tab

version 1
version 1

Intro

Whole song

Interactive

7,878 views 1 this week
2 commentsread comments
1 2 3 4 5
x 5
add to favorites
launch autoscroll
font size
0
reset
how to read this tab
guitar tuner
Autoscroll
slow
fast
+/-
esc
set tempo
stop
Help us to improve Ultimate-Guitar.com Take our survey!
×
Difficulty
novice
|---7---7---7---6---4---4---4---4---4---4---4---6---6---6---6----------------|
|-----7---7---7---7---4---4---4---4---5---5---5---7---7---7---7--------------|
|----------------------------------------------------------------------------|
|----------------------------------------------------------------------------|
|----------------------------------------------------------------------------|
|----------------------------------------------------------------------------|
Suggest correction
comments
print report bad tab
2 comments total.
0 reply
hillsy945 136 Jul 05, 2011 05:55 PM

Very slight correction, I think...

When you slide back up from the 4-5, go to 7-7 for one note and then back to 6-7...make sense?

|---4---7---6---6---6----|
|---5---7---7---7---7----|

0 reply
CAPTAINBEEFHEAR 167 Aug 21, 2011 09:26 AM

Good one hillsy. Good tab too

guest
You may want to rate the tab now too:
select rating
Wanna post a correction for this tab? Suggest correction