Oops, an error
Loading. Please wait.

Love Machine Tab

version 1
version 1

Intro

Whole song

Interactive

20,209 views 3 this week
10 commentsread comments
1 2 3 4 5
x 14
add to favorites
launch autoscroll
font size
0
reset
how to read this tab
guitar tuner
Autoscroll
slow
fast
+/-
esc
set tempo
stop
Help us to improve Ultimate-Guitar.com Take our survey!
×
Author
Difficulty
novice
|------------------------------------------------------|
|------------------------------------------------------|
|------------------------------------------------------|
|------------------------------------------------------|
|--5-3-3-2-0--5-3-3-2-0--5-----------------------------|
|------------------------------------------------------|
|-3---------3------------------------------------------|



MY FIRST TAB SO GO EASY WITH ME 
I THINK IT SOUNDS RIGHT ??? COMMENT IF YOU THINK OTHERWISE 
Suggest correction
comments
print report bad tab
10 comments total. Showing first comments.
-1 reply
oasis_mad 10 Feb 04, 2006 04:31 AM

I think its more like this: Try it and amend your if you agree:-----------------------------------------------------------
-----------------------------------------------------------
-----------------------------------------------------------
--5-333320--5-333320--5333320------------------------------
------------------------------1111-3333--------------------
-3--------3---------3--------------------------------------

0 reply
sean the third 10 Feb 08, 2006 04:53 PM

i think oasis mad is more correct, though to be fair the sytle you play it influences the accuracy of the sound rather than the specific riff. but good on both on you for enlightening me eh

0 reply
gary19862k6 195 Mar 14, 2006 07:10 AM

naaah, thts the wrong key, u gotta play it starin oan 2nd fret of the E string, same pattern tho, obviously the 0s on the D string will be 4's on the A.

guest
You may want to rate the tab now too:
select rating
Wanna post a correction for this tab? Suggest correction