Oops, an error
Loading. Please wait.

Love Machine Tab

version 1
version 1

Whole song

Interactive

7,148 views 6 this week
4 commentsread comments
1 2 3 4 5
accurate
x 6
add to favorites
launch autoscroll
font size
0
reset
how to read this tab
guitar tuner
Autoscroll
slow
fast
+/-
esc
set tempo
stop
Help us to improve Ultimate-Guitar.com Take our survey!
×
Difficulty
novice
e ------------| Repeat 3 times
b ------------|
g ------------|
d --5-3-3-2-0-|
a ------------|
E 3-----------|


e ---------------------------------------------------------------|
b ---------------------------------------------------------------|
g ---------------------------------------------------------------|
d 5-5-5-5-8-8-10-10-5-5-5-5-8-8-10-10----------------------------|
a 5-5-5-5-8-8-10-10-5-5-5-5-8-8-10-10----------------------------|
E 3-3-3-3-6-6-8--8--3-3-3-3-6-6-8--8-----------------------------|
Suggest correction
comments
print report bad tab
4 comments total. Showing first comments.
0 reply
jolly_ham 10 wrote on September 21 2006, 02:38 pm

the intro isnt complete
and they play bar-chords up stroked....but it would allow someone to play a cover, just not the same as the arctic monkeys

0 reply
harley_smith 10 wrote on January 1 2007, 01:03 pm

and you need to play 3, 3 times ie..

e ------------| Repeat 3 times
b ------------|
g ------------|
d --5-333-22-0|
a ------------|
E 3-----------| without proper tab the noobs wont have a clue dim wit!

xx

0 reply
harley_smith 10 wrote on January 1 2007, 01:04 pm

i feel like im being negative but u did ok! bye!

guest
You may want to rate the tab now too:
select rating
Wanna post a correction for this tab? Suggest correction