Oops, an error
Loading. Please wait.

Mad Sounds Tab

version 1
version 1

Whole song

Interactive

89,754 views 492 this week
5 commentsread comments
1 2 3 4 5
excellent!
x 91
add to favorites
launch autoscroll
font size
0
reset
how to read this tab
guitar tuner
Tab Pro tools
  • play this tab
  • loop segment
  • change instrument
  • show fretboard
  • metronome
×
Best way to learn
"Mad Sounds"
Autoscroll
slow
fast
+/-
esc
set tempo
stop
Contributor
A song That's Gonna Be On The New Arctic Monkeys Album "AM"


enjoy this great song!!
 
**let me know how this tab was for you , by rating it :) ***


Intro (Lead Gutiar)

e|-----------5-~---6----------------3---3--5---|
B|--------------------6----6-------------------|  x2
G|----3-s-5------5-------5--------3-----3--5---|
D|---------------------------------------------|  
A|---------------------------------------------|
E|---------------------------------------------|

Then :
             Mad Sounds      In Your Ears  
e|-----------5-~------------3~-----------------|
B|---------------------------------------------|
G|----3-s-5-----------5-s-3--------------------|
D|---------------------------------------------|    x2
A|---------------------------------------------|
E|---------------------------------------------|



Then:

.....          They'll Bring.........Live........  
e|----3--5--6---10---8--6---5----------------------------------|
B|-----------------------------5---6---6------------8----------|
G|----3--5--6---10---8--6---6----6--------7-----7-----7--------|
D|-------------------------------------7-----7------8----8-----|
A|-------------------------------------------------------------|
E|-------------------------------------------------------------|



...Mad Sounds.... .In Your Ears
e|------------1---------------------------|
B|----------1------3----------------------|
G|-------2------------3-------------------|  x3
D|----3------------------3----------------|
A|--------------------------1~~-----------|
E|----------------------------------------|

4 time :

     Make You Get Up               
e|------------1--------------------------|
B|----------1----------------------------|
G|-------2----------3--------------------|
D|----3----------------------------------|
A|---------------------------------------|
E|---------------------------------------|



e|----1-~------------------------------------------|
B|----1-~------3-----------------------------------|
G|----2-~------3-----------------------------------|   X2
D|----3-~------3-----------------------------------|
A|----3-~------1-----------------------------------|
E|----1-~------------------------------------------|



Reapet Until The Bridge:



.....suppose..Gotta do...Tried.Figure Out..
e|----1-~-----------------3----0----------------------|
B|----1-~------3----------3----1----------------------|
G|----2-~------3---x2-----3----0----x2----------------|   
D|----3-~------3----------5----2----------------------|
A|----3-~------1----------5----3----------------------|
E|----1-~-----------------3---------------------------|



And The O-La-LaLa  Part Is The Same As 


e|----1-~------------------------------------------|
B|----1-~------3-----------------------------------|
G|----2-~------3-----------------------------------|   X2
D|----3-~------3-----------------------------------|
A|----3-~------1-----------------------------------|
E|----1-~------------------------------------------|
comments
print report bad tab
5 comments total. Showing first comments.
0 reply
Callum.turnbull wrote on September 8 2013, 04:43 am

I think you have the first and second part mixed up. the second part is actually the intro and the first part is the precursor to the run down.

0 reply
Callum.turnbull wrote on September 8 2013, 04:49 am

But other wise this was an aweome tab! 5 stars!

0 reply
*SugarDown* wrote on September 14 2013, 10:30 am

Thanks! Fixed it :)

I want to post or [tab]
guest
You may want to rate the tab now too:
select rating
Please do not post tabs as comments. Select "correction" instead!