Oops, an error
Loading. Please wait.

Mardy Bum Bass Tab

version 1
version 1
66,458 views 129 this week
8 commentsread comments
1 2 3 4 5
x 11
add to favorites
launch autoscroll
font size
0
reset
guitar tuner
backing track
0:00
0:00
Autoscroll
slow
fast
+/-
esc
set tempo
stop
Help us to improve Ultimate-Guitar.com Take our survey!
×
[Intro/Verse] [Main Riff - Repeat for all verses]
G|-------------------------------------------------------------------------------------|
D|---------------4--7-4--4--4-4-4-5--4-5--5--5-4-4-4-5--4-2--2--2-2-2------------------|
A|--5--5--5-5-5------------------------------------------------------------------------|
E|-------------------------------------------------------------------------------5--5--|

[Chorus] 
(Laughs n jokes around...)
G|--------------------------------------------------------------------------|
D|----------------------------4-2----------------------------4-2------------|
A|--5---5--7---5-5-0--2-2-----5---5--7---5-5-0—2-2-----5----7---------------|
E|--------------------------------------------------------------------------|

[Bridge] 
(Sorry I was late...)
G|-------------------------------------------------------------------------|
D|-------------------------------------------------------------------------|
A|--4-4-4-4-4-4-7-4-5-5-5-5-5-5-5-5-4-4-4-4-4-4-7-4-5-5-5-5-5-5-5-5-4-4-4--|
E|-------------------------------------------------------------------------|

G|------------------------------------------------------------------------------|
D|------------------------------------------------------------------------------|
A|--4-4-4-7-4-5-5-5-5-5-5-5-5-4-4-4-4-4-4-7-4-5-5-5-5-7-7-7-7-------------------|
E|------------------------------------------------------------------------------|
Suggest correction
comments
print report bad tab
8 comments total. Showing first comments.
0 reply
Nodding Donkey 10 Mar 03, 2006 06:02 AM

Nice Work! Sounds great

0 reply
uncle_timmay 30 Apr 01, 2006 01:41 PM

not sure. ill make a better 1

0 reply
uncle_timmay 30 Apr 06, 2006 05:07 PM

EVERYONE LOOK AT VERSION 3 ITS BETTER!!!!!

guest
You may want to rate the tab now too:
select rating
Wanna post a correction for this tab? Suggest correction