Oops, an error
Loading. Please wait.

Mardy Bum Tab

version 2
version 2

Solo

Interactive

22,604 views 9 this week
1 commentread comment
1 2 3 4 5
accurate
x 5
add to favorites
launch autoscroll
font size
0
reset
how to read this tab
guitar tuner
Tab Pro tools
  • play this tab
  • loop segment
  • change instrument
  • show fretboard
  • metronome
×
Best way to learn
"Mardy Bum"
Autoscroll
slow
fast
+/-
esc
set tempo
stop
Contributor
Difficulty
intermediate
         e-------------------------------------------------------------------|
         B-------------------------------------------------------------------|
         G-9-7-6-7-6-7/9-7-6-7-6---------------------------------------------|
         D-------------------------------------------------------------------|
         A-------------------------------------------------------------------|
         E-------------------------------------------------------------------|
lh finger  3 1/1 2 1 2/ \2 1 2 1

          e------------------------------------------------------------------|
          B------------------------------------------------------------------|
          G-4-6-4-2-4-2-------2----------------------------------------------|
          D-------------4-2-4---4-2-0----------------------------------------|
          A------------------------------------------------------------------|
          E------------------------------------------------------------------|
            1 3 1 1 3 1 3 1 3 1 3 1 0

          e----------------------------------|
          B----------------------------------|
          G-7-7-7-7-9-6-6-7-9-9/11-9-7---7---|
          D----------------------------9-----|
          A----------------------------------|
          E----------------------------------|
            1 1 1 1 3 1 1/1 3 3/3  1/1 3 1

          e----------------------------------|
          B----------------------------------|
          G-9/11-9/7-9-----------------------|
          D------------9---------------------|
          A----------------------------------|
          E----------------------------------|
            3/4  1/1  3 2
comments
print report bad tab
1 comment total.
0 reply
Phil-1405 wrote on March 9 2007, 03:54 pm

great tab thanks 5 stars

I want to post or [tab]
guest
You may want to rate the tab now too:
select rating
Please do not post tabs as comments. Select "correction" instead!